คอร์ดเพลง ฉันไม่สำออย - เสก โลโซ (Sek Loso)

Version 9
แกะโดย ฟา
เมื่อ 16 ส.ค.2548,21:19น.
ดู 4050 ครั้ง
ฉันไม่สำออย (เต็มสูตร)

Tab Bass

Intro E/B/C#m/A (2 times)
5|--7-7-7-7-7-7-7-7-----------------------4-4-4-4-4-4-4-4-4-----------------------|
6|------------------------7-7-7-7-7-7-7-7--------------------------5-5-5-5-5-5-5-5-|

อย่าคิดมากเลยหากเธอพบคนใหม่.. (4 times)
5|--7-7-7-7-7-7-7-7-----------------------4-4-4-4-4-4-4-4-4-----------------------|
6|------------------------7-7-7-7-7-7-7-7--------------------------5-5-5-5-5-5-5-5-|

* ฉันไม่สำออยไม่คอยให้เธอปลอบ..
5|--7-7-7-7-7-7-7-7-----------------------4-4-4-4-4-4-4-4-4-----------------------|
6|------------------------7-7-7-7-7-7-7-7--------------------------5-5-4-5-4-5-4-0-|

5|--7-7-7-7-7-7-7-7-----------------------4-4-4-4-4-4-4-4-4-----------------------|
6|------------------------7-7-7-7-7-7-7-7--------------------------5-5-4-5-4-5-4-0-|

5|--7-7-7-7-7-7-7-7-----------------------4-4-4-4-4-4-4-4-4-----------------------|
6|------------------------7-7-7-7-7-7-7-7--------------------------5-5-4-5-4-5-4-0-|

5|--7-7-7-7-7-7-7-7-----------------------4-4-4-4------------------------------------|
6|------------------------7-7-7-7-7-7-7-7------------5-5-5-5-2-2-2-2-4-4-4-4-4|

6|-5-5-5-5-5-5-5-5-|

Intro E/B/C#m/A (2 times)
5|--7-7-7-7-7-7-7-7-----------------------4-4-4-4-4-4-4-4-4-----------------------|
6|------------------------7-7-7-7-7-7-7-7--------------------------5-5-4-5-4-5-4-0-|

อยากรบกวนเธอบอกเขาให้ฉันหน่อย.. (4 times)
5|--7-7-7-7-7-7-7-7-----------------------4-4-4-4-4-4-4-4-4-----------------------|
6|------------------------7-7-7-7-7-7-7-7--------------------------5-5-5-5-5-5-5-5-|

(ซ้ำ*)

Solo : E/B/C#M/A (4 times)
5|--7-7-7-7-7-7-7-7-----------------------4-4-4-4-4-4-4-4-4-----------------------|
6|------------------------7-7-7-7-7-7-7-7--------------------------5-5-4-5-4-5-4-0-|

ก็คิดว่าทำบุญมาไม่มากพอ.. (2 times)
5|--7-7-7-7-7-7-7-7-----------------------4-4-4-4-4-4-4-4-4-----------------------|
6|------------------------7-7-7-7-7-7-7-7--------------------------5-5-5-5-5-5-5-5-|

(ซ้ำ*)

Outro : Intro E/B/C#m/A (? times)
5|--7-7-7-7-7-7-7-7-----------------------4-4-4-4-4-4-4-4-4-----------------------|
6|------------------------7-7-7-7-7-7-7-7--------------------------5-5-4-5-4-5-4-0-|

SOLO guitar
สาย 5 ---7----9s----11---9-------7----9s-----11----9------7

สาย 5 ---7----9s-----11------9------7-----9s------11----9-----
สาย 4 ------------------------------------------------------------>11---

สาย 5 7------9s-----11-----9-----7----9s----11----9---
สาย 4 -----------------------------------------------------------11h-----9h------11h----

สาย 5 7-----9s-----11-----9-----7------9s------11---9--
สาย 3 --------------------------------------------------------->9--

INTRO : E/B/C#M/A (2 times)
E B C#M/A
อย่าคิดมากเลยหากเธอพบคนใหม่
E B C#M/A
บอกไม่เป็นไรก็ใจฉันชิน
E B C#M/A
แค่คนคนหนึ่งที่ลุยแทบบ้าบิ่น
E B C#M/A
พรุ่งนี้คงบินต่อไปเหมือนเดิม
E B C#M/A
*ฉันไม่สำออยไม่คอยให้เธอปลอบ
E B C#M/A
ฉันไม่ค่อยชอบให้ใครเห็นน้ำตา
E B C#M/A
เมื่อเธอไปดีเจอะทางที่ดีกว่า
E B C#M/A
ใครมันจะกล้าห้ามไม่ให้ไป
......................................
F#m G#m
ก็รักจึงยอมให้เธอทุกอย่าง
A E
ยอมเปิดทาง.....ทั้งที่เจ็บใจ(ทั้งที่จะตาย)

E/B/C#M/A (2 times)
E B C#M/A
อยากรบกวนเธอบอกเขาให้ฉันหน่อย
E B C#M/A
ฝากเขาช่วยดูแลเธอให้ดี
E B C#M/A
ให้รักจริงๆใส่ใจให้เต็มที่
E B C#M/A
ถ้าเขาไม่ดีอาจมีไม่ยอม
เย้..เย..เย้ (ซ้ำ*)
....โซโล่.....
SOLO :E/B/C#M/A (4 times)
E B C#M/A
ก็คิดว่าทำบุญมาไม่มากพอ
E B C#M/A
แต่ก็จะรอหากเธอเปลี่ยนใจนะ
(ซ้ำ*)
E B C#M/A
ฉันไม่สำออยไม่คอยให้เธอปลอบ
E B C#M/A
ฉันไม่ค่อยชอบให้ใครเห็นน้ำตา
E B C#M/A
เมื่อเธอไปดีเจอะทางที่ดีกว่า
E B C#M/A
ใครมันจะกล้าห้ามไม่ให้ไป
E B C#M/A
ใครมันจะกล้าห้ามไม่ให้ไป
E B C#M
ใครมันจะกล้าห้ามไม่ให้ไป


คอร์ดเพลง ฉันไม่สำออย

ความคิดเห็นเกี่ยวกับคอร์ดนี้

เวอร์ชั่นทั้งหมดของคอร์ดเพลงนี้

คอร์ดเพลง ฉันไม่สำออย

0 | 0
โดย ฟา
เมื่อ 14 ปีที่แล้ว

คอร์ดเพลง ฉันไม่สำออย

0 | 0
โดย เทวดาตัวดำ
เมื่อ 14 ปีที่แล้ว

คอร์ดเพลง ฉันไม่สำออย

0 | 0
โดย เอ้คุง
เมื่อ 15 ปีที่แล้ว

คอร์ดเพลง ฉันไม่สำออย

0 | 0
โดย เมล์
เมื่อ 15 ปีที่แล้ว

คอร์ดเพลง ฉันไม่สำออย

0 | 0
โดย เมล์
เมื่อ 15 ปีที่แล้ว

คอร์ดเพลง ฉันไม่สำออย

0 | 0
โดย Mr.BAT
เมื่อ 15 ปีที่แล้ว

คอร์ดเพลง ฉันไม่สำออย

0 | 0
โดย หม่องหม๋อง
เมื่อ 15 ปีที่แล้ว

คอร์ดเพลง ฉันไม่สำออย

0 | 0
โดย sek_zoon
เมื่อ 15 ปีที่แล้ว

คอร์ดเพลง ฉันไม่สำออย

0 | 0
โดย pnameong
เมื่อ 15 ปีที่แล้ว

เนื้อเพลง ฉันไม่สำออย - เสก โลโซ (Sek Loso)

เพลง ฉันไม่สำออย
ศิลปิน เสก โลโซ


อย่าคิดมากเลยหากเธอพบคนใหม่
บอกไม่เป็นไรก็ใจฉันชิน
แค่คนคนหนึ่งที่ลุยแทบบ้าบิ่น
พรุ่งนี้คงบินต่อไปเหมือนเดิม

*ฉันไม่สำออยไม่คอยให้เธอปลอบ
ฉันไม่ค่อยชอบให้ใครเห็นน้ำตา
เมื่อเธอไปดีเจอะทางที่ดีกว่า
ใครมันจะกล้าห้ามไม่ให้ไป
ก็รักจึงยอมให้เธอทุกอย่าง
ยอมเปิดทาง.....ทั้งที่เจ็บใจ(ทั้งที่จะตาย)

อยากรบกวนเธอบอกเขาให้ฉันหน่อย
ฝากเขาช่วยดูแลเธอให้ดี
ให้รักจริงๆใส่ใจให้เต็มที่
ถ้าเขาไม่ดีอาจมีไม่ยอม
เย้..เย..เย้ (ซ้ำ*)
....โซโล่.....

ก็คิดว่าทำบุญมาไม่มากพอ
แต่ก็จะรอหากเธอเปลี่ยนใจนะ
(ซ้ำ*)
ฉันไม่สำออยไม่คอยให้เธอปลอบ
ฉันไม่ค่อยชอบให้ใครเห็นน้ำตา
เมื่อเธอไปดีเจอะทางที่ดีกว่า
ใครมันจะกล้าห้ามไม่ให้ไป
ใครมันจะกล้าห้ามไม่ให้ไป
ใครมันจะกล้าห้ามไม่ให้ไป

Cover เพลงฉันไม่สำออย


ยังไม่มี Cover เพลงนี้

[ ช่วยกันแบ่งปันคลิปเพลงที่คุณเล่นเอง ]

ฟังเพลง ฉันไม่สำออย

แม่ - เสก โลโซ (Sek Loso)
เมื่อ 16 ปีที่แล้ว
ค้นพบคอร์ด 13 เวอร์ชั่น
แม้ว่า - เสก โลโซ (Sek Loso)
เมื่อ 15 ปีที่แล้ว
ค้นพบคอร์ด 12 เวอร์ชั่น
เจ็บหัวใจ - เสก โลโซ (Sek Loso)
เมื่อ 11 ปีที่แล้ว
ค้นพบคอร์ด 2 เวอร์ชั่น
นานเท่าไหร่ก็รอ - เสก โลโซ (Sek Loso)
เมื่อ 16 ปีที่แล้ว
ค้นพบคอร์ด 10 เวอร์ชั่น
ไม่ยอมตัดใจ - เสก โลโซ (Sek Loso)
เมื่อ 11 ปีที่แล้ว
ค้นพบคอร์ด 10 เวอร์ชั่น
ห่วงใย - เสก โลโซ (Sek Loso)
เมื่อ 8 ปีที่แล้ว
ค้นพบคอร์ด 2 เวอร์ชั่น
(ฉันคิดฯ)ฐานะอะไร - เสก โลโซ (Sek Loso)
เมื่อ 9 ปีที่แล้ว
ยังไม่มีคอร์ด
เสือร้องไห้ - เสก โลโซ (Sek Loso)
เมื่อ 9 ปีที่แล้ว
ค้นพบคอร์ด 5 เวอร์ชั่น
อยากได้ยินว่ารักกัน - เสก โลโซ (Sek Loso)
เมื่อ 10 ปีที่แล้ว
ค้นพบคอร์ด 1 เวอร์ชั่น
พันธ์ทิพย์ - เสก โลโซ (Sek Loso)
เมื่อ 15 ปีที่แล้ว
ค้นพบคอร์ด 3 เวอร์ชั่น
ไม่ใช่ฉันใช่ไหม Feat. ดา Endorphin - เสก โลโซ (Sek Loso)
เมื่อ 10 ปีที่แล้ว
ยังไม่มีคอร์ด
เพื่อเธอคนเดียว - เสก โลโซ (Sek Loso)
เมื่อ 11 ปีที่แล้ว
ค้นพบคอร์ด 2 เวอร์ชั่น
คุณรู้ไหมครับ - เบิร์ด-เสก โลโซ
เมื่อ 16 ปีที่แล้ว
ค้นพบคอร์ด 13 เวอร์ชั่น
เก็บดาวมาให้เธอ - เสก โลโซ (Sek Loso)
เมื่อ 11 ปีที่แล้ว
ค้นพบคอร์ด 7 เวอร์ชั่น
ขอบใจจริงๆ - เสก โลโซ (Sek Loso)
เมื่อ 16 ปีที่แล้ว
ค้นพบคอร์ด 5 เวอร์ชั่น
รับ (แฟนเธอ) ไม่ได้ - เสก โลโซ (Sek Loso)
เมื่อ 16 ปีที่แล้ว
ค้นพบคอร์ด 7 เวอร์ชั่น
ควบคุมหัวใจตัวเองไม่ได้ - เสก โลโซ (Sek Loso)
เมื่อ 9 ปีที่แล้ว
ค้นพบคอร์ด 4 เวอร์ชั่น
คิดได้ยังไง - เสก โลโซ (Sek Loso)
เมื่อ 13 ปีที่แล้ว
ค้นพบคอร์ด 22 เวอร์ชั่น
ทุกลมหายใจ - เสก โลโซ (Sek Loso)
เมื่อ 14 ปีที่แล้ว
ค้นพบคอร์ด 7 เวอร์ชั่น
เยอะ - เสก โลโซ (Sek Loso)
เมื่อ 8 ปีที่แล้ว
ค้นพบคอร์ด 2 เวอร์ชั่น