คอร์ดเพลง ชั่วฟ้าดินสลาย - พลพล พลกองเส็ง

Version 6
แกะโดย บอส
เมื่อ 20 ม.ค.2548,18:17น.
ดู 446 ครั้ง
พี่ไก่ครับผมม่ายอยากเกย์ทับกันนะครับแต่ว่าของผมไปขอมาจากพี่ที่เขาเล่นกีต้าให้พลพลอยู่อะนะคับ
Intro
6)------------------------------------------------------------------------------------------------
5)------------------------------------------------------------------------------------------------
4)---------------------------------------5h7----------------------------------5h7------------
3)--4/5---------5/7--5/7/5-5h7----------4/5----------5/7-5/7/5--------5h7p5--
2)--------6-5-6---------------------------------------6-5-6----------------------------------
1)------------------------------------------------------------------------------------------------

ต่อครับ
6)------------------------------------------------------------------------------------------------
5)------------------------------------------------------------------------------------------------
4)---------------------------------------------------------------3----------------5-5/3--------
3)--4/5---------5/7/1--7--------------------------------------3-2-3-3/5-----------------
2)--------6-5-6--------------5-6/8/10-10-8-6-5-5h6------------------------------------
1)-------------------------------------------------------------------------------------------------

ส่วนท่อoSoloไว้ว่างจะเอามาลงให้นะครับ
คอร์ดเพลง ชั่วฟ้าดินสลาย

ความคิดเห็นเกี่ยวกับคอร์ดนี้

เวอร์ชั่นทั้งหมดของคอร์ดเพลงนี้

คอร์ดเพลง ชั่วฟ้าดินสลาย

2 | 0
โดย ไก่
เมื่อ 14 ปีที่แล้ว

คอร์ดเพลง ชั่วฟ้าดินสลาย

0 | 0
โดย เบนซ์
เมื่อ 5 ปีที่แล้ว

คอร์ดเพลง ชั่วฟ้าดินสลาย

0 | 0
โดย เด็กไทย อยู่ สธ
เมื่อ 14 ปีที่แล้ว

คอร์ดเพลง ชั่วฟ้าดินสลาย

0 | 0
โดย one
เมื่อ 14 ปีที่แล้ว

คอร์ดเพลง ชั่วฟ้าดินสลาย

0 | 0
โดย บอส
เมื่อ 14 ปีที่แล้ว

คอร์ดเพลง ชั่วฟ้าดินสลาย

0 | 0
โดย บอส
เมื่อ 14 ปีที่แล้ว

คอร์ดเพลง ชั่วฟ้าดินสลาย

0 | 0
โดย NV Pooh
เมื่อ 14 ปีที่แล้ว

คอร์ดเพลง ชั่วฟ้าดินสลาย

0 | 0
โดย นพ
เมื่อ 14 ปีที่แล้ว

คอร์ดเพลง ชั่วฟ้าดินสลาย

0 | 0
โดย อุ๊
เมื่อ 14 ปีที่แล้ว

คอร์ดเพลง ชั่วฟ้าดินสลาย

0 | 0
โดย ไก่
เมื่อ 14 ปีที่แล้ว

เนื้อเพลง ชั่วฟ้าดินสลาย - พลพล พลกองเส็ง

มันเกิดอะไรกับคำว่ารัก
ที่คิดว่าซึ้งใจเกินคำไหนใดๆ
ที่แล้วก้ร้ายกับเรากว่าทุกๆคน
หัวใจเขาทำด้วยอะไร

* ชั่วฟ้าดินสลาย สัญญาใจคนไหนบอก
รักแล้วไม่ลวงหลอก คนที่บอกอยู่ที่ไหน
ก้ฟ้ายังฟ้าอยู่ ดินก็ดูไม่เป้นไร
แล้วรักก็จากไปที่สลายคือใจคน
ที่บกว่ารักก็จากไปแล้ว

ที่ช้ำไปแล้วก้ยังไม่แล้วกันไป
คิดถึงเสมอหัวใจเฝ้าเพ้อพะวง
ยังหลับไม่ลงยังคงร้องไห้
* *
ชั่วฟ้าดินสลายจะไม่รักใครสักคน


ใครอยากรู้เรื่องเพลงคุยกันได้นะในmsn

Cover เพลงชั่วฟ้าดินสลาย


ยังไม่มี Cover เพลงนี้

[ ช่วยกันแบ่งปันคลิปเพลงที่คุณเล่นเอง ]

ฟังเพลง ชั่วฟ้าดินสลาย

คนไม่สำคัญ - พลพล
เมื่อ 14 ปีที่แล้ว
ค้นพบคอร์ด 10 เวอร์ชั่น
กอดหน่อยได้ไหม - พลพล
เมื่อ 7 ปีที่แล้ว
ค้นพบคอร์ด 5 เวอร์ชั่น
ชั่วฟ้าดินสลาย - พลพล พลกองเส็ง
เมื่อ 14 ปีที่แล้ว
ค้นพบคอร์ด 11 เวอร์ชั่น
ตาแดงแดง - พลพล feat. พั้นช์ (พันช์)
เมื่อ 14 ปีที่แล้ว
ค้นพบคอร์ด 5 เวอร์ชั่น
แค่มี - พลพล
เมื่อ 11 ปีที่แล้ว
ค้นพบคอร์ด 5 เวอร์ชั่น
ยังยิ้มได้ - พลพล
เมื่อ 12 ปีที่แล้ว
ค้นพบคอร์ด 5 เวอร์ชั่น
อุ่นใจ - พลพล
เมื่อ 15 ปีที่แล้ว
ค้นพบคอร์ด 36 เวอร์ชั่น
ขอให้โชคดี - พลพล
เมื่อ 14 ปีที่แล้ว
ค้นพบคอร์ด 4 เวอร์ชั่น
ใจคอ - พลพล
เมื่อ 15 ปีที่แล้ว
ค้นพบคอร์ด 6 เวอร์ชั่น
คนไกลเบอร์เก่า - พลพล feat.ต่าย อรทัย
เมื่อ 14 ปีที่แล้ว
ค้นพบคอร์ด 1 เวอร์ชั่น
คนเดินถนน - พลพล
เมื่อ 14 ปีที่แล้ว
ค้นพบคอร์ด 5 เวอร์ชั่น
สัญญากาสะลอง - พลพล feat. ลานนา คัมมินส์
เมื่อ 14 ปีที่แล้ว
ค้นพบคอร์ด 6 เวอร์ชั่น
อ้วนดำ - พลพล-พั้นช์
เมื่อ 13 ปีที่แล้ว
ค้นพบคอร์ด 4 เวอร์ชั่น
ห่วงใย - พลพล
เมื่อ 14 ปีที่แล้ว
ค้นพบคอร์ด 3 เวอร์ชั่น
คนไม่เจียม - พลพล
เมื่อ 11 ปีที่แล้ว
ค้นพบคอร์ด 2 เวอร์ชั่น
สักวันหนึ่ง - พลพล
เมื่อ 14 ปีที่แล้ว
ค้นพบคอร์ด 3 เวอร์ชั่น
คนคนนี้ - พลพล
เมื่อ 14 ปีที่แล้ว
ค้นพบคอร์ด 2 เวอร์ชั่น
คนที่เธอไม่รัก - พลพล
เมื่อ 11 ปีที่แล้ว
ค้นพบคอร์ด 2 เวอร์ชั่น
วันนั้นอย่าลืมวันนี้ - พลพล
เมื่อ 9 ปีที่แล้ว
ค้นพบคอร์ด 1 เวอร์ชั่น
คำสามคำ - พลพล พลกองเส็ง
เมื่อ 16 ปีที่แล้ว
ค้นพบคอร์ด 2 เวอร์ชั่น