คอร์ดเพลง ช่องว่างในหัวใจ - เสือ ธนพล

Version 3
แกะโดย kyubi band
เมื่อ 30 ต.ค.2549,08:54น.
ดู 768 ครั้ง
ช่องว่างในหัวใจ                                 


เสือ ธนพล อินธฤทธิ์
Guitar :
Trabscribed : kyubi band
Tab intro 100% คับ


Am C G
E||--------------------|---------------------------|------------------------|
B||--------------------|---------------------------|--1----3--0-------------|
G||--------------------|---------0--2--------------|---------------2--0--2--|
D||--------------------|-----0h2---------2--0h2----|--2----3--0-------------|
A||--------------2--3--|--0---------------------3--|---------------3--2--3--|
E||--------------------|---------------------------|------------------------|


Am C G
---------------------------|---------------0--3--3/5-|
---------------------------|--1----3--0--------------|
---------0--2--------------|-------------------------|
-----0h2---------2--0h2----|--2----3--0----2--5--5/7-|
--0---------------------3--|-------------------------|
---------------------------|-------------------------|


Am C G
---------------------------|------------------------|----------------------|
---------------------------|--1----3--0-------------|-----------1----------|
---------0--2--------------|---------------2--0--2--|--------2-------------|
-----0h2---------2--0h2----|--2----3--0-------------|-----2----------------|
--0---------------------3--|---------------3--2--3--|--0-------------------|
---------------------------|------------------------|----------------------|



----------||
----------||
----------||
----------||
----------||
----------||
คอร์ดเพลง ช่องว่างในหัวใจ

ความคิดเห็นเกี่ยวกับคอร์ดนี้

เนื้อเพลง ช่องว่างในหัวใจ - เสือ ธนพล

ช่องว่างในหัวใจ
rtist : เสือ ธนพล

Intro :


คงเหมือนเรือน้อย ฝ่ามรสุม ก็เหมือนดังว่าว ขาดปลิวตามลม

มีความทรงจำ คือความขื่นขม ใครกันจะถมให้ชีวิตนี้.....เต็ม

Instru : ( 2 Time )


* เคยเป็นอย่างฉันบ้างรึเปล่า....พ่อแม่ทะเลาะกันทุกวัน

เธอเป็นอย่างฉันบ้างรึเปล่า...ครอบครัวแตกร้าวไม่ต้องการ

** อย่าไปจากฉันได้มั้ย อยู่กับฉัน เพราะฉันไม่มีใคร

ขอใจจากเธอคนนี้ แทนรักที่มันหายไป ช่วยเติมช่องว่างในหัวใจ

ก็เพราะเธอ คือคนสุดท้าย.....ที่ฉันมี

Solo : ( 2 Time )
( 3 Time )


เรื่องราวของฉัน เธอรับได้มั้ย สิ่งที่ฉันเป็น ยิ่งกว่านิยาย

เธอคือความรัก ที่ฉันขาดหาย

หากขาดเธอไป ฉันคงไม่เหลือ....ใคร

( ซ้ำ * , ** , ** )

Cover เพลงช่องว่างในหัวใจ


ยังไม่มี Cover เพลงนี้

[ ช่วยกันแบ่งปันคลิปเพลงที่คุณเล่นเอง ]

ฟังเพลง ช่องว่างในหัวใจ

รถของเล่น (Toy car) - เสือโคร่ง (Tiger)
เมื่อ 7 ปีที่แล้ว
ค้นพบคอร์ด 7 เวอร์ชั่น
รักเดียวใจเดียว - เสือ ธนพล
เมื่อ 15 ปีที่แล้ว
ค้นพบคอร์ด 4 เวอร์ชั่น
18ฝน - เสือ ธนพล อินทฤทธิ์
เมื่อ 13 ปีที่แล้ว
ค้นพบคอร์ด 9 เวอร์ชั่น
ขาดความอบอุ่น - เสือใหญ่
เมื่อ 14 ปีที่แล้ว
ค้นพบคอร์ด 14 เวอร์ชั่น
ช่องว่างในหัวใจ - เสือ ธนพล
เมื่อ 16 ปีที่แล้ว
ค้นพบคอร์ด 6 เวอร์ชั่น
รักคงยังไม่พอ - เสือ ธนพล
เมื่อ 10 ปีที่แล้ว
ค้นพบคอร์ด 3 เวอร์ชั่น
ร้องไห้กันฉัน - เสือ ธนพล อินทฤทธิ์
เมื่อ 14 ปีที่แล้ว
ค้นพบคอร์ด 6 เวอร์ชั่น
เสียคน - เสือ ธนพล อินทฤทธิ์
เมื่อ 15 ปีที่แล้ว
ค้นพบคอร์ด 6 เวอร์ชั่น
ผ่านเลยไป - เสือโคร่งfeat.แป้งโกะ
เมื่อ 7 ปีที่แล้ว
ค้นพบคอร์ด 2 เวอร์ชั่น
ดีแต่... - เสือใหญ่
เมื่อ 14 ปีที่แล้ว
ค้นพบคอร์ด 4 เวอร์ชั่น
เก็บไว้นานนาน - เสือ ธนพล
เมื่อ 15 ปีที่แล้ว
ค้นพบคอร์ด 5 เวอร์ชั่น
หัวใจเดียวกัน - เสือ ธนพล อินทฤทธิ์
เมื่อ 13 ปีที่แล้ว
ค้นพบคอร์ด 5 เวอร์ชั่น
ฟ้ากับเหว - เสือ ธนพล
เมื่อ 11 ปีที่แล้ว
ค้นพบคอร์ด 3 เวอร์ชั่น
กระดาษห่อไฟ - เสือ ธนพล อินทฤทธิ์
เมื่อ 9 ปีที่แล้ว
ค้นพบคอร์ด 2 เวอร์ชั่น
หัวใจล้มเหลว - เสือใหญ่
เมื่อ 12 ปีที่แล้ว
ค้นพบคอร์ด 11 เวอร์ชั่น
คนไม่ดี - เสือ ธนพล
เมื่อ 11 ปีที่แล้ว
ค้นพบคอร์ด 3 เวอร์ชั่น
นางฟ้าข้างถนน - เสือ ธนพล
เมื่อ 16 ปีที่แล้ว
ค้นพบคอร์ด 2 เวอร์ชั่น
ผงเข้าตา - เสือ ธนพล
เมื่อ 11 ปีที่แล้ว
ค้นพบคอร์ด 2 เวอร์ชั่น
ได้ยินแล้วหายเหนื่อย - เสือใหญ่
เมื่อ 12 ปีที่แล้ว
ค้นพบคอร์ด 11 เวอร์ชั่น
เศษดาว - เสือ ธนพล อินทฤทธิ์
เมื่อ 14 ปีที่แล้ว
ค้นพบคอร์ด 5 เวอร์ชั่น

คอร์ดเพลงใหม่

34 | 1/0

เจ็บหนักวิทยา - เบลล์ นิภาดา

คอร์ดโดย สมัครฟรี ไม่เสียค่าใช้จ่าย
เมื่อ เมื่อวานนี้
51 | 0/0

ถ่าเจ้ากลับมา - ป๊อป นพรัตน์

คอร์ดโดย ศิริศักดิ์ ฝ่ายวงค์
เมื่อ 3 วันก่อน
122 | 0/0

Ver.2 มากกว่าฝูงหมา - กางเกง

คอร์ดโดย สไมล์ เดวิลล์ ปีศาจอารมณ์ดี
เมื่อ 6 วันก่อน
55 | 1/0

Ver.5 ล้า - อะเลิทร์(Alert)

คอร์ดโดย Naternet Bassist
เมื่อ 7 วันก่อน
86 | 0/0

Ver.2 ผีบ้าถามทาง - บิ๊กวัน กันทรลักษ์

คอร์ดโดย สไมล์ เดวิลล์ ปีศาจอารมณ์ดี
เมื่อ 7 วันก่อน
52 | 0/0

Ver.2 เขาให้เฮาเกิดมาเจ็บ - บิ๊กวัน กันทรลักษ์

คอร์ดโดย สไมล์ เดวิลล์ ปีศาจอารมณ์ดี
เมื่อ 7 วันก่อน
105 | 0/0

Ver.2 คนเช็ดเงา - มาลีฮวนน่า

คอร์ดโดย สไมล์ เดวิลล์ ปีศาจอารมณ์ดี
เมื่อ 7 วันก่อน