คอร์ดเพลง ดวงใจยังมีรัก - เดอะ พอสซิเบิล (the Possible)

Version 11
แกะโดย B วง Zad
เมื่อ 1 ม.ค.2550,17:12น.
ดู 486 ครั้ง
Solo ไม่ชัวร์นะ  แต่คล้ายแล้วล่ะ

2|-------------------------------------/--------------------------------/
3|-------------------------------------/----------------5-5s7-5-----/
4|--3s5-5~----7-7h8-7-----7---/---7s8-8~-------------------/
5|-----------------------------8------/--------------------------------/

2|--------------------------------------------------------------/
3|--7h8p7-----7-8-8s10---8--7h8p7-----7-----------/
4|------------10-----------------------------10----10-------/
5|--------------------------------------------------------------/

2|------------------------------------------------------------------------------/
3|--7h8p7-----7-8-8s10---8--7h8p7-----7-----------------8s10---/
4|------------10-----------------------------10----10--8--7---------------/
5|-----------------------------------------------------------------8-----------/

/=คั่นช่วงห้อง
s=Slide
h=hammer Off
p=Pull On
คอร์ดเพลง ดวงใจยังมีรัก

ความคิดเห็นเกี่ยวกับคอร์ดนี้

เวอร์ชั่นทั้งหมดของคอร์ดเพลงนี้

คอร์ดเพลง ดวงใจยังมีรัก

84 | 7
โดย เฮ้ง
เมื่อ 13 ปีที่แล้ว

คอร์ดเพลง ดวงใจยังมีรัก

2 | 0
โดย โอห์ม
เมื่อ 13 ปีที่แล้ว

คอร์ดเพลง ดวงใจยังมีรัก

0 | 0
โดย I'Vic Obb Solo
เมื่อ 9 วันก่อน

คอร์ดเพลง ดวงใจยังมีรัก

0 | 0
โดย บักเจิด
เมื่อ 13 ปีที่แล้ว

คอร์ดเพลง ดวงใจยังมีรัก

0 | 0
โดย ขอบคุงงับ
เมื่อ 13 ปีที่แล้ว

คอร์ดเพลง ดวงใจยังมีรัก

0 | 0
โดย ปั๊บ RoaD SeaSon
เมื่อ 13 ปีที่แล้ว

คอร์ดเพลง ดวงใจยังมีรัก

0 | 0
โดย รีเจ
เมื่อ 13 ปีที่แล้ว

คอร์ดเพลง ดวงใจยังมีรัก

0 | 0
โดย เคนตั๊กกี้ ฟราย ชิกเก้น
เมื่อ 13 ปีที่แล้ว

คอร์ดเพลง ดวงใจยังมีรัก

0 | 0
โดย B วง Zad
เมื่อ 13 ปีที่แล้ว

คอร์ดเพลง ดวงใจยังมีรัก

0 | 0
โดย ตาหนู (พ.ก.ส)
เมื่อ 13 ปีที่แล้ว

คอร์ดเพลง ดวงใจยังมีรัก

0 | 0
โดย -ป๊อปค้าบบบบ-
เมื่อ 13 ปีที่แล้ว

คอร์ดเพลง ดวงใจยังมีรัก

0 | 0
โดย BbeenoN
เมื่อ 13 ปีที่แล้ว

คอร์ดเพลง ดวงใจยังมีรัก

0 | 0
โดย purin
เมื่อ 13 ปีที่แล้ว

คอร์ดเพลง ดวงใจยังมีรัก

0 | 0
โดย -*-*-*
เมื่อ 13 ปีที่แล้ว

คอร์ดเพลง ดวงใจยังมีรัก

0 | 0
โดย เด็กดี
เมื่อ 13 ปีที่แล้ว

คอร์ดเพลง ดวงใจยังมีรัก

0 | 0
โดย วง TENT
เมื่อ 13 ปีที่แล้ว

คอร์ดเพลง ดวงใจยังมีรัก

0 | 0
โดย kiw
เมื่อ 13 ปีที่แล้ว

เนื้อเพลง ดวงใจยังมีรัก - เดอะ พอสซิเบิล (the Possible)


ฝากเวลาวอนรำพัน ข้ามคืนวันมาชิดใกล้

รักที่รอนแรมมาไกล แค่ไหนเธอรู้ดี

หวังว่าเธอยังมีใจจดและจำคำนี้ไว้

ดวงใจฉันรักเธอ ดวงใจฉันรักเธอ


ครั้งนั้นถ้าฉันได้รู้ คงเคียงคู่สุขสันต์

เพียงแต่ฉันกลับตัวและหัวใจ

แต่ฉัน ทำตัวเองให้ร้างแรมห่างไกล

เลวแค่ไหนยอดชู้เธอคงจะรู้ดี


* แต่จะจากกันไกลเพียงไร แต่ดวงใจไม่เคยห่าง

รักไม่เคยจะจืดจาง หดห่างจากหัวใจ

ขอเพียงเธอจงอย่าลืม ถ้อยคำคำนี้ไป

ถึงตัวห่างไกลอย่างไร แต่เธอโปรดรู้ไว้

ดวจใจฉันรักเธอ รู้ไว้ดวงใจฉันรักเธอ
,
รู้ไว้ดวงใจฉันรักเธอ รู้ไว้ดวงใจฉันรักเธอ


ยังไม่ลืมเราเลว จนเธออำลา

ยังติดตาดวงหน้าเธอมี น้ำตาคลอ

ไม่เคยกลับใจ ผิดแค่ไหนให้เธอท้อ

เพียงแค่ขอ ยอมรับเอาไว้ในโทษทัณฑ์

*
Solo , *4

*

Cover เพลงดวงใจยังมีรัก


ยังไม่มี Cover เพลงนี้

[ ช่วยกันแบ่งปันคลิปเพลงที่คุณเล่นเอง ]

ฟังเพลง ดวงใจยังมีรัก