คอร์ดเพลง ดอกราตรี - เอ็นโดรฟิน (Endorphine)

Version 2
แกะโดย ((((๑.๑)
เมื่อ 29 ก.ย.2547,13:24น.
ดู 1201 ครั้ง
Tab ท่อน Intro :    
C#m G#m7 F#m7 G#m7
1)---------------------------------------------------------------------------------
2)-------5--------------5----4------------4----2------------2----4------------
3)------------------6------------------4------------------2----------------------
4)-------------6-------------------6------------------4--------------------------
5)-------4--------------------4------------------2------------------4-----------
6)---------------------------------------------------------------------------------


C#m G#m7 F#m7 G#m7
1)---------------------------------------------------------------------------------
2)-------5--------------5----4------------4----2------------5----4------------
3)------------------6------------------4------------------2----------------------
4)-------------6-------------------6------------------4--------------------------
5)-------4--------------------4------------------2------------------4-----------
6)---------------------------------------------------------------------------------


C#m G#m7 F#m7 G#m7
1)---------------------------------------------------------------------------------
2)-------5--------------5----4------------4----2------------2----4------------
3)------------------6------------------4------------------2----------------------
4)-------------6-------------------6------------------4--------------------------
5)-------4--------------------4------------------2------------------4-----------
6)---------------------------------------------------------------------------------


C#m G#m7 F#m7
1)---------------------------------------------------------------------------------
2)-------5--------------5----7----5----4----0----2----2-------------H------
3)------------------6-------------------------------------------------------------
4)-------------6------------------------------------------------------------------
5)-------4-------------------------------------------2----2----------------------
6)---------------------------------------------------------------------------------

((อัพเดทคอร์ดกีต้าร์))
คอร์ดเพลง ดอกราตรี

ความคิดเห็นเกี่ยวกับคอร์ดนี้

เนื้อเพลง ดอกราตรี - เอ็นโดรฟิน (Endorphine)

Title : ดอกราตรี
rtist : ndorphine
lbum : พริก
________________________________________________________________
ดึกลับดับแสงแอบแฝงในฟ้าราตรี
ส่งกลิ่นอบอวนป่วนในหัวใจให้เกินข่มตา
ขาวราวดวงเดือนเลื่อนลอยกันลงมา
จากบนนภา...กลายเป็นดอกไม้ราตรี

กลิ่นหวนชวนหอมลอยหายไปไกลแสนไกล
ดั่งดวงดอกไม้เจ้าส่งสายใยถึงใครอีกคน
ที่ลับลาไปทิ้งให้ราตรีหม่น
ดุจดังหัวใจของคนที่เด็ดเจ้ามา

* ดึกดื่นคืนนี้...ฮือ ฮือ ฮือ ฮือ ฮือ...
ก็เธออยู่แห่งหนไหน...ฮือ ฮือ ฮือ ฮือ ฮือ...
อีกกี่คืนไม่รู้...ฮือ ฮือ ฮือ ฮือ ฮือ...
ที่ยังคงต้องฝันเฝ้ารอไปอย่างนี้...

** ฝากฟ้าสวรรค์กระซิบถ้อยคำรำพัน
ให้ใครคนนั้นไม่ลืมไม่ลืมเรื่องราวคนนี้
แม้ราตรีโรย...ร่วงลับลาชีวี...แต่รักที่มี
ไม่เคยจะเลือนล้างไป...

(ซ้ำ*,**)

Cover เพลงดอกราตรี


ยังไม่มี Cover เพลงนี้

[ ช่วยกันแบ่งปันคลิปเพลงที่คุณเล่นเอง ]

ฟังเพลง ดอกราตรี

สิ่งสำคัญ - เอ็นโดรฟิน (Endorphine)
เมื่อ 14 ปีที่แล้ว
ค้นพบคอร์ด 22 เวอร์ชั่น
น้ำเต็มแก้ว - เอ็นโดรฟิน (Endorphine)
เมื่อ 13 ปีที่แล้ว
ค้นพบคอร์ด 22 เวอร์ชั่น
อย่าทำให้ฟ้าผิดหวัง - เอ็นโดรฟิน (Endorphine)
เมื่อ 13 ปีที่แล้ว
ค้นพบคอร์ด 25 เวอร์ชั่น
เพื่อนสนิท - เอ็นโดรฟิน (Endorphine)
เมื่อ 14 ปีที่แล้ว
ค้นพบคอร์ด 2 เวอร์ชั่น
สิ่งสำคัญ - เอ็นโดรฟิน (Endorphine)
เมื่อ 14 ปีที่แล้ว
ค้นพบคอร์ด 10 เวอร์ชั่น
คืนข้ามปี - ดา เอ็นโดรฟิน (Endorphine)
เมื่อ 12 ปีที่แล้ว
ค้นพบคอร์ด 25 เวอร์ชั่น
ไม่รู้จักฉัน ไม่รู้จักเธอ - ป๊อบ แคลอลี่ บลา บลา & ดา เอ็นโดรฟิน
เมื่อ 11 ปีที่แล้ว
ค้นพบคอร์ด 14 เวอร์ชั่น
เมื่อเขามา ฉันจะไป - เอ็นโดรฟิน (Endorphine)
เมื่อ 13 ปีที่แล้ว
ค้นพบคอร์ด 21 เวอร์ชั่น
ภาพลวงตา - ดา เอ็นโดรฟิน (Endorphine)
เมื่อ 12 ปีที่แล้ว
ค้นพบคอร์ด 27 เวอร์ชั่น
ดูแลเขาให้ดีดี - เอ็นโดรฟิน (Endorphine)
เมื่อ 11 ปีที่แล้ว
ค้นพบคอร์ด 3 เวอร์ชั่น
ได้ยินไหม - ดา เอ็นโดรฟิน (Endorphine)
เมื่อ 11 ปีที่แล้ว
ค้นพบคอร์ด 20 เวอร์ชั่น
น่ารัก Ost.วัยอลวน - เอ็นโดรฟิน (Endorphine)
เมื่อ 13 ปีที่แล้ว
ค้นพบคอร์ด 13 เวอร์ชั่น
ไม่ต้องรู้ว่าเราคบกันแบบไหน - เอ็นโดรฟิน (Endorphine)
เมื่อ 12 ปีที่แล้ว
ค้นพบคอร์ด 4 เวอร์ชั่น
คำขอสุดท้าย - ดา เอ็นโดรฟิน (Endorphine)
เมื่อ 12 ปีที่แล้ว
ค้นพบคอร์ด 13 เวอร์ชั่น
ครั้งหนึ่งเราเคยรักกัน - ดา เอ็นโดรฟิน
เมื่อ 9 ปีที่แล้ว
ยังไม่มีคอร์ด
ดอกราตรี - เอ็นโดรฟิน (Endorphine)
เมื่อ 14 ปีที่แล้ว
ค้นพบคอร์ด 6 เวอร์ชั่น
เธอบอกให้ลืม - เอ็นโดรฟิน (Endorphine)
เมื่อ 14 ปีที่แล้ว
ค้นพบคอร์ด 3 เวอร์ชั่น
อยากได้ยินว่ารักกัน - ดา เอ็นโดรฟิน (Endorphine)
เมื่อ 9 ปีที่แล้ว
ค้นพบคอร์ด 2 เวอร์ชั่น
ที่เห็นและเป็นอยู่ - ดา เอ็นโดรฟิน (Endorphine)
เมื่อ 12 ปีที่แล้ว
ค้นพบคอร์ด 2 เวอร์ชั่น
เหมือนเดิมอยู่ไหม - เอ็นโดรฟิน (Endorphine)
เมื่อ 13 ปีที่แล้ว
ค้นพบคอร์ด 3 เวอร์ชั่น