คอร์ดเพลง ทาส - พาราด็อกซ์ (Paradox)

Version 3
แกะโดย KOnG
เมื่อ 30 มี.ค.2548,14:23น.
ดู 528 ครั้ง
------------------------
----------13--13~--
-----10---------------
--12------------------
-----------------------
----------------------- ซ้ำอีก 1 รอบ..

------------------------------------------------------------------------
-11>13--11-11-10-----------------------------------------------
----------------------------10---------------------10--9------------
-----------------------------------------------10--------------10--5~
------------------------------------------12---------------------------
-------------------------------------------------------------------------

-----------------------------------------------------
----------------------------------------------------
------10--10~------------------10--9---------
----10------------------12--10--------------10~
-12------------------------------------------------
-----------------------------------------------------

----------------------------------------------
----------------------------------------------
-----10--12>14--14~---12--10>12--
-12------------------------------------------
----------------------------------------------
----------------------------------------------

ตรงนี้ขอให้เอากไฟเสียบที่นิ้วหน่อยนะครับบบบ

--------------15------20----17---20---17--17~~-
--------15-----15>17--15---15---15---15--------
-12>14--14--------------------------------------------
----------------------------------------------------------
----------------------------------------------------------
----------------------------------------------------------

-15>17---15-----13--12---------
----------------------------------13--
---------------------------------------
--------------------------------------
--------------------------------------
--------------------------------------

((ขอคอร์ดกีต้าร์))
คอร์ดเพลง ทาส

ความคิดเห็นเกี่ยวกับคอร์ดนี้

เนื้อเพลง ทาส - พาราด็อกซ์ (Paradox)


เธอ เธอ เคยรักฉันรึเปล่า บางคราวเธอดู ช่างโหดร้าย


มันถูกบังคับ ไปทุกอย่าง จนทำให้เราไม่แน่ใจ

เธอเปลี่ยนตัวฉันดูใหม่ อารมณ์ของเธอ ช่างหวั่นไหว โดนบีบบังคับตามคำสั่ง ต้องอยู่ ต้องทนเป็น


*ทาส ไม่พูด ไม่โวย ไม่บ่น มันจวนจะกลายเป็น ทาส โดนเฆี่ยน โดนตี ถูกใช่งาน ต้องฝืนทนต่อไป

ทาส ไม่พูด ไม่โวย ไม่บ่น มันจวนจะกลายเป็น ทาส สนองอารมณ์ ถูกทิ้ง ต้องฝืนทนต่อไป

Intro: ( 2 time )


ยอม ถูกเหยียบ โดนย้ำ โดนบีบ วิญญาณ ฉันคงจะแหลกเหลว

แต่เป็นเพราะรัก เธอมากกว่า จึงต้องมาถูก ทรมารทรกรรมเป็น
(ซ้ำ *)

ไม่โวย ไม่วาย ต้องทน ต้องตาย ไม่โวย ไม่วาย ต้องทน ต้องตาย

Intro:


เธอ เธอ เคยรักฉันรึเปล่า บางคราวเธอดู ช่างโหด...ร้าย...

Cover เพลงทาส


ยังไม่มี Cover เพลงนี้

[ ช่วยกันแบ่งปันคลิปเพลงที่คุณเล่นเอง ]

ฟังเพลง ทาส

ฤดูร้อน - พาราด็อกซ์ (Paradox)
เมื่อ 15 ปีที่แล้ว
ค้นพบคอร์ด 41 เวอร์ชั่น
เธอที่รัก(วัยอลวน4 ตั้ม โอ๋รีเทอนร์) - พาราด็อกซ์ (Paradox)
เมื่อ 14 ปีที่แล้ว
ค้นพบคอร์ด 20 เวอร์ชั่น
คนบนฟ้า - พาราด็อกซ์ (Paradox)
เมื่อ 7 ปีที่แล้ว
ค้นพบคอร์ด 4 เวอร์ชั่น
มีแต่เธอ - พาราด็อกซ์ (PARADOX)
เมื่อ 15 ปีที่แล้ว
ค้นพบคอร์ด 1 เวอร์ชั่น
Sexy (เซ็กซี่) - พาราด็อกซ์ (Paradox)
เมื่อ 16 ปีที่แล้ว
ค้นพบคอร์ด 10 เวอร์ชั่น
กอดฉันไว้ (Ost.สามชุก) - พาราด็อกซ์ (Paradox)
เมื่อ 10 ปีที่แล้ว
ค้นพบคอร์ด 1 เวอร์ชั่น
ดาว - พาราด็อกซ์ (PARADOX)
เมื่อ 15 ปีที่แล้ว
ค้นพบคอร์ด 17 เวอร์ชั่น
ใครสักคน - พาราด็อกซ์ (Paradox)
เมื่อ 12 ปีที่แล้ว
ค้นพบคอร์ด 11 เวอร์ชั่น
กรงทอง - พาราด็อกซ์ (Paradox)
เมื่อ 15 ปีที่แล้ว
ค้นพบคอร์ด 10 เวอร์ชั่น
จิ๊บ ร.ด. - พาราด็อกซ์ (Paradox)
เมื่อ 12 ปีที่แล้ว
ค้นพบคอร์ด 3 เวอร์ชั่น
ผงาดง้ำค้ำโลก - พาราด็อกซ์ (Paradox)
เมื่อ 12 ปีที่แล้ว
ค้นพบคอร์ด 13 เวอร์ชั่น
ทาส - พาราด็อกซ์ (Paradox)
เมื่อ 15 ปีที่แล้ว
ค้นพบคอร์ด 16 เวอร์ชั่น
นักมายากล - พาราด็อกซ์ (PARADOX)
เมื่อ 15 ปีที่แล้ว
ค้นพบคอร์ด 14 เวอร์ชั่น
เพ้อ - พาราด็อกซ์ (PARADOX)
เมื่อ 15 ปีที่แล้ว
ค้นพบคอร์ด 3 เวอร์ชั่น
LOVE - พาราด็อกซ์ (Paradox)
เมื่อ 15 ปีที่แล้ว
ค้นพบคอร์ด 9 เวอร์ชั่น
เป็นวัยรุ่นมันเหนื่อย - พาราด็อกซ์ (Paradox)
เมื่อ 14 ปีที่แล้ว
ค้นพบคอร์ด 6 เวอร์ชั่น
อยู่ในใจ - พาราด็อกซ์ (Paradox)
เมื่อ 15 ปีที่แล้ว
ค้นพบคอร์ด 3 เวอร์ชั่น
ขอ - พาราด็อกซ์ (Paradox)
เมื่อ 15 ปีที่แล้ว
ค้นพบคอร์ด 4 เวอร์ชั่น
3มิติ - พาราด็อกซ์ (Paradox)
เมื่อ 15 ปีที่แล้ว
ค้นพบคอร์ด 14 เวอร์ชั่น
ไก่ - พาราด็อกซ์ (PARADOX)
เมื่อ 15 ปีที่แล้ว
ค้นพบคอร์ด 6 เวอร์ชั่น