คอร์ดเพลง ทิ้งไว้ในใจ - บิ๊กแอส (Big Ass)

Version 16
แกะโดย HellZBoyZ
เมื่อ 28 ก.พ.2550,11:21น.
ดู 728 ครั้ง



ok มาต่อเลย หลังจะอินโทรแล้ว ก้ดีดคอร์ด

ลืมบอกไปว่า เพลงนี้ใช้กีตาร์ 2 ตัว ตัวนึงเกาคอร์ดอีกตัวเกา เสียงเบาๆคู่กันไป นะคับ แล้ว ทั้ง 2 ตัวต้อง ดรอปสายลงครึ่งเสียงเปน Eb เอาละ มาเริ่มเลย ทีละครึ่งเพลงนะคับ มันยาว เดวผมจะรวมให้

Intro --------------------------------G------------------------ Csus2-----------------------------G
1--------------------------------------------------------------------------------------------------------
2--------------------------------------------------------------------3--------------------------3h5-3
3----------------0---------------------------------------------------------------------------------------
4-------0h2----------------2---------------5--4-------4h5-----------5--4---------5-------------
5----------------------0h2--------------------------5----------------------------5-------------------
6--------------------------------------------------------------------------------------------------------

--------G---------------------Csus2---------------------------------------------G
1 --------------------------------------------------------------------------------------------------------
2--------------------------------------------------------------------------------------------------------
3----------------------------------7--5--4---0-------------------0----------------------------------
4-------------5-4---------------------------------------0h2----------------------0------------------
5--------------------5---------------------------------------------------0h2---------------------
6--------------------------------------------------------------------------------------------------------

Csus2 G Csus2 D G
เทอจะทิ้งชั้นไป ใช่ไหม อย่างนั้นก้ห้ามไม่ได้ ในเมื่อชั้นไม่มีความหมาย ห้ามไป ก้เท่านั้น
Csus2 G Csus2 D Em
อยากจะขอร้องเทอซักครั้ง ความรักที่ชั้นเคยให้ เกบเอาไว้ที่เทอได้ไหม แม้เทอจะไม่ต้องการ
1----7
2----8
Guitar 2 3----9
4----9
5---7
6--------

D Csus2 D
ไม่ต้องเอาไปทิ้ง ให้มัน ไกล สายตา ไม่ต้องเอาไปไหน ให้เทอ...
1----5 |1---3 1------------------------
2----7 |2---5 2-----------------------
Guitar2 3----7 |3---5 3------------------------
4-----7 |4---5 4------4-5-4-5-4-5-4
5-----5 |5---3 5-------------------------
6------- |6---- 6----------------------


ตรง Guitar 2 นี่ กดตามที่เขียนไว้ ตามเฟช ให้ถูกต้อง แล้วดีด ลง ทีหลังคอร์ดจาก Guitar 1 1จังหวะ ลองฟังเพลงดูแล้วจะรู้ครับ

คอร์ดเพลง ทิ้งไว้ในใจ

ความคิดเห็นเกี่ยวกับคอร์ดนี้

เวอร์ชั่นทั้งหมดของคอร์ดเพลงนี้

คอร์ดเพลง ทิ้งไว้ในใจ

1 | 0
โดย หนึ่งคร้าบ
เมื่อ 11 ปีที่แล้ว

คอร์ดเพลง ทิ้งไว้ในใจ

0 | 0
โดย 3/4 ล.ก
เมื่อ 12 ปีที่แล้ว

คอร์ดเพลง ทิ้งไว้ในใจ

0 | 0
โดย fvd
เมื่อ 12 ปีที่แล้ว

คอร์ดเพลง ทิ้งไว้ในใจ

0 | 0
โดย o_O
เมื่อ 12 ปีที่แล้ว

คอร์ดเพลง ทิ้งไว้ในใจ

0 | 0
โดย HellZBoyZ
เมื่อ 12 ปีที่แล้ว

คอร์ดเพลง ทิ้งไว้ในใจ

0 | 0
โดย HellZBoyZ
เมื่อ 12 ปีที่แล้ว

คอร์ดเพลง ทิ้งไว้ในใจ

0 | 0
โดย HellZBoyZ
เมื่อ 12 ปีที่แล้ว

คอร์ดเพลง ทิ้งไว้ในใจ

0 | 0
โดย บาส King Dom ระนอง
เมื่อ 12 ปีที่แล้ว

คอร์ดเพลง ทิ้งไว้ในใจ

0 | 0
โดย ยุท S.p.y.
เมื่อ 12 ปีที่แล้ว

คอร์ดเพลง ทิ้งไว้ในใจ

0 | 0
โดย กะจั๊วะทีม
เมื่อ 13 ปีที่แล้ว

คอร์ดเพลง ทิ้งไว้ในใจ

0 | 0
โดย qw
เมื่อ 13 ปีที่แล้ว

คอร์ดเพลง ทิ้งไว้ในใจ

0 | 0
โดย โต้อุดร กีต้าร์เพื่อน้องน้อย
เมื่อ 13 ปีที่แล้ว

คอร์ดเพลง ทิ้งไว้ในใจ

0 | 0
โดย แจ๊ก สามเสน
เมื่อ 13 ปีที่แล้ว

คอร์ดเพลง ทิ้งไว้ในใจ

0 | 0
โดย Umbrela Of Suankularb
เมื่อ 14 ปีที่แล้ว

คอร์ดเพลง ทิ้งไว้ในใจ

0 | 0
โดย ีUmbrela Of Suankularb
เมื่อ 14 ปีที่แล้ว

คอร์ดเพลง ทิ้งไว้ในใจ

0 | 1
โดย ..
เมื่อ 15 ปีที่แล้ว

คอร์ดเพลง ทิ้งไว้ในใจ

0 | 0
โดย ตั้ม
เมื่อ 15 ปีที่แล้ว

คอร์ดเพลง ทิ้งไว้ในใจ

0 | 0
โดย ตั้ม
เมื่อ 15 ปีที่แล้ว

คอร์ดเพลง ทิ้งไว้ในใจ

0 | 0
โดย คนเล่นเปียโน
เมื่อ 15 ปีที่แล้ว

คอร์ดเพลง ทิ้งไว้ในใจ

0 | 0
โดย เว็บมาสซาเตอร์
เมื่อ 16 ปีที่แล้ว

คอร์ดเพลง ทิ้งไว้ในใจ

0 | 0
โดย เว็บมาสซาเตอร์
เมื่อ 16 ปีที่แล้ว

เนื้อเพลง ทิ้งไว้ในใจ - บิ๊กแอส (Big Ass)




เธอจะทิ้งฉันไปใช่ไหม อย่างนั้นก็ห้ามไม่ได้

อย่างฉันไม่มีความหมาย ห้ามไปก็เท่านั้น


อยากจะขอร้องเธอสักครั้ง ว่ารักที่ฉันเคยให้

จะเอาไว้ที่เธอได้ไหม แม้เธอจะไม่ต้องการ


//
// ไม่ต้องเอาไปทิ้งให้มันไกลสายตา ไม่ต้องเอาไปไหน
////
//// ให้เธอทิ้งไว้ อยู่ในใจเธอแล้วกัน รักที่ได้จากฉัน ทิ้งมันไว้ที่เก่า
////
//// เอาไว้ที่เดิม เผื่อ(วันนึง/สักวัน) หากเธอต้องไม่เหลือใคร
////
//// เธอยังเหลือฉันอยู่ ให้รู้ว่าเธอนั้นมีฉันอยู่ในใจ
////


ไม่อยากเห็นเธอไปกับเขา อยากรั้งเอาไว้ไห้ได้

แต่ก็รู้ว่าคงจะสายเกินไปสำหรับฉัน

เก็บความรักฉันไว้ให้ดี เผื่อวันไหนที่เธอร้องไห้

ถ้าเธอค้นหัวใจ จะรู้ว่าเธอยังคงมีฉัน

// ,/// ,///

รักที่ได้จากฉัน ใจที่ฉันเคยให้
เอาไว้ที่เธอได้ไหม ทิ้งไว้ในหัวใจ
แม้ว่าเธอไม่รัก แม้ฉันห้ามไม่ได้
แต่จะขอรักเธอต่อไป งังไงก็รักเธอ

Cover เพลงทิ้งไว้ในใจ


ยังไม่มี Cover เพลงนี้

[ ช่วยกันแบ่งปันคลิปเพลงที่คุณเล่นเอง ]

ฟังเพลง ทิ้งไว้ในใจ

ทุ้มอยู่ในใจ - บิ๊กแอส (Big Ass)
เมื่อ 8 ปีที่แล้ว
ยังไม่มีคอร์ด
พรหมลิขิต - บิ๊กแอส (Big Ass)
เมื่อ 12 ปีที่แล้ว
ค้นพบคอร์ด 82 เวอร์ชั่น
ลมเปลี่ยนทิศ - บิ๊กแอส (Big ass)
เมื่อ 6 ปีที่แล้ว
ค้นพบคอร์ด 4 เวอร์ชั่น
เล่นของสูง - บิ๊กแอส (Big Ass)
เมื่อ 15 ปีที่แล้ว
ค้นพบคอร์ด 40 เวอร์ชั่น
ทิ้งไว้ในใจ - บิ๊กแอส (Big Ass)
เมื่อ 16 ปีที่แล้ว
ค้นพบคอร์ด 22 เวอร์ชั่น
คนหลงทาง - บิ๊กแอส (Big Ass)
เมื่อ 12 ปีที่แล้ว
ค้นพบคอร์ด 84 เวอร์ชั่น
อย่างน้อย - บิ๊กแอส(ost.ปิดเทอมใหญ่ หัวใจว้าวุ่น)
เมื่อ 11 ปีที่แล้ว
ค้นพบคอร์ด 26 เวอร์ชั่น
ทางผ่าน - บิ๊กแอส (Big Ass)
เมื่อ 15 ปีที่แล้ว
ค้นพบคอร์ด 11 เวอร์ชั่น
ก่อนตาย - บิ๊กแอส (Big Ass)
เมื่อ 15 ปีที่แล้ว
ค้นพบคอร์ด 22 เวอร์ชั่น
เรา - บิ๊กแอส บอดี้สแลม
เมื่อ 14 ปีที่แล้ว
ค้นพบคอร์ด 23 เวอร์ชั่น
ข้าน้อยสมควรตาย - บิ๊กแอส (Big Ass)
เมื่อ 12 ปีที่แล้ว
ค้นพบคอร์ด 27 เวอร์ชั่น
หัวใจ - บิ๊กแอส (Big Ass)
เมื่อ 10 ปีที่แล้ว
ค้นพบคอร์ด 2 เวอร์ชั่น
ส่งท้ายคนเก่าต้อนรับคนใหม่ - บิ๊กแอส (Big Ass)
เมื่อ 10 ปีที่แล้ว
ยังไม่มีคอร์ด
สิ่งกีดขวาง - บิ๊กแอส (Big Ass)
เมื่อ 12 ปีที่แล้ว
ค้นพบคอร์ด 27 เวอร์ชั่น
พรมลิขิต - บิ๊กแอส
เมื่อ 12 ปีที่แล้ว
ค้นพบคอร์ด 25 เวอร์ชั่น
น้ำตา(Big Ass) - บิ๊กแอส (Big Ass)
เมื่อ 15 ปีที่แล้ว
ค้นพบคอร์ด 9 เวอร์ชั่น
บันทึกหน้าสุดท้าย - บิ๊กแอส (Big Ass)
เมื่อ 10 ปีที่แล้ว
ยังไม่มีคอร์ด
ฝุ่น - บิ๊กแอส (big Ass)
เมื่อ 10 ปีที่แล้ว
ค้นพบคอร์ด 7 เวอร์ชั่น
ดีแต่ปาก - บิ๊กแอส (Big Ass)
เมื่อ 15 ปีที่แล้ว
ค้นพบคอร์ด 22 เวอร์ชั่น
เหตุผลง่ายๆ - บิ๊กแอส (BigAss)
เมื่อ 16 ปีที่แล้ว
ค้นพบคอร์ด 7 เวอร์ชั่น