คอร์ดเพลง นักมายากล - พาราด็อกซ์ (PARADOX)

Version 10
แกะโดย ไก่
เมื่อ 2 ส.ค.2547,22:37น.
ดู 467 ครั้ง
1)--------------13-15-17-18-18-17-15-13-15--13-12-10-12-13-12-10-12-13-12-10-----
2)----13--17--------------------------------------------------------------------------------------------13-
3)-------------------------------------------------------------------------------------------------------------
4)-------------------------------------------------------------------------------------------------------------
5)-------------------------------------------------------------------------------------------------------------
6)-------------------------------------------------------------------------------------------------------------

1)-------------------------------------------------------------------------------------------------------------
2)--11-11--10-------10----------------------------------10--------------------10----------------------
3)----------------12-------12--10-9-10-12--9-10-12----12-10-9-10-12---12-10-9-10-12---
4)-------------------------------------------------------------------------------------------------------------
5)-------------------------------------------------------------------------------------------------------------
6)-------------------------------------------------------------------------------------------------------------

1)----------------10-12-13-15-17-18-20--18-18-17-17-15-15-13-15-13-12-13-12-10---
2)---10-11-13------------------------------------------------------------------------------------------13
3)-------------------------------------------------------------------------------------------------------------
4)-------------------------------------------------------------------------------------------------------------
5)-------------------------------------------------------------------------------------------------------------
6)-------------------------------------------------------------------------------------------------------------

1)------------------------------------------------------------------------------------------------------------
2)-11-11-10-------10---------------------10^11^12-----------10^11^12-----------10^11^12
3)---------------12------12-10-9^10^12-------------9^10^12-------------9^10^12------------
4)-------------------------------------------------------------------------------------------------------------
5)-------------------------------------------------------------------------------------------------------------
6)-------------------------------------------------------------------------------------------------------------

1)---------------------------------------------------------------------------------------------------
2)-------------10^11^12-----------10^11^12-----------------------------------------------
3)-9^10^12-------------9^10^12--------------------------------------------------------------
4)------------------------------------------------------10------------------------------------------
5)----------------------------------------------------------------------------------------------------
6)---------------------------------------------------------------------------------------------------

เฮ้อก่าจาเส็ด
ลองเล่นกันดูนะคับ
ผิดตงไหนก้อบอกได้นะคับ
เพื่อจาได้แก้ไขให้
อย่าด่าเปนพอคับ
((อัพเดทคอร์ดกีต้าร์))
คอร์ดเพลง นักมายากล

ความคิดเห็นเกี่ยวกับคอร์ดนี้

เวอร์ชั่นทั้งหมดของคอร์ดเพลงนี้

คอร์ดเพลง นักมายากล

38 | 4
โดย เก้า
เมื่อ 15 ปีที่แล้ว

คอร์ดเพลง นักมายากล

2 | 0
โดย Zeon
เมื่อ 15 ปีที่แล้ว

คอร์ดเพลง นักมายากล

0 | 0
โดย เกน
เมื่อ 12 ปีที่แล้ว

คอร์ดเพลง นักมายากล

0 | 0
โดย +^-Popsuke-^+
เมื่อ 13 ปีที่แล้ว

คอร์ดเพลง นักมายากล

0 | 0
โดย boyjovi
เมื่อ 13 ปีที่แล้ว

คอร์ดเพลง นักมายากล

0 | 0
โดย ไก่
เมื่อ 14 ปีที่แล้ว

คอร์ดเพลง นักมายากล

0 | 0
โดย Playboyzzz
เมื่อ 15 ปีที่แล้ว

คอร์ดเพลง นักมายากล

0 | 0
โดย เวสท์
เมื่อ 15 ปีที่แล้ว

คอร์ดเพลง นักมายากล

0 | 0
โดย bos
เมื่อ 15 ปีที่แล้ว

คอร์ดเพลง นักมายากล

0 | 0
โดย guitar_man
เมื่อ 15 ปีที่แล้ว

คอร์ดเพลง นักมายากล

0 | 0
โดย NV Pooh
เมื่อ 15 ปีที่แล้ว

คอร์ดเพลง นักมายากล

0 | 0
โดย ArmYmaruZ
เมื่อ 15 ปีที่แล้ว

เนื้อเพลง นักมายากล - พาราด็อกซ์ (PARADOX)

นักมายากล


Intro:


รัตติกาลร่าเริงก้องคำรามเบิกฟ้า

กลุ่มคนมากมายท่องเขตเมืองมายา

หนุ่มสาวซุกกองเพลิงอยู่ในดวงตา

จ้องมองที่งานการแสดงพิเศษ


นักมายากลระเบิดกลเกินพรรณนา

กระชากวิญญาณผู้ชมให้หลงลืมจากการเวลา

เขาเอาอะไรพอใส่ลงไปในกล่องดำหลงเหลือแต่ความว่างเปล่า


มีเด็กติดใจสงสัยบอกไปทำไมพี่สาวคู่รักของนักมายากลนั้น

เขาจึงไม่ลองทำให้หายลับไปดูสักที

มีเด็กติดใจสงสัยบอกไปทำไมพี่สาวคู่รักของนักมายากลนั้น

เขาจึงไม่ลองทำให้หายลับไปดูสักที


คงเป็นเพราะใจตัวเองง่ายดายเสกเธอหายตัวภายในพริบตา

มองความรักเธอเป็นเรื่องไร้ค่าก่อเกิดผลกลับต่างๆนาๆ

คนโห่ร้องแสดงความยินดีถูกกล่าวขานลือเลื่องปฐพี

ส่วนตัวเขานั้นน้ำตานองหน้าเพราะเธอนั้นหายไปตลอดกาล

Instru:

(ซ้ำทั้งหมด)

Instru:


* ฉันดั่งคนเล่นกลจนหยิ่งในศักดิ์ศรีอวดบารมีมาบดบังความรัก

ได้ทำร้ายใจเธอเจ็บปวดยิ่งนักทั้งนอกและในการแสดง

(ซ้ำ *,*)

Instru:

Cover เพลงนักมายากล


ยังไม่มี Cover เพลงนี้

[ ช่วยกันแบ่งปันคลิปเพลงที่คุณเล่นเอง ]

ฟังเพลง นักมายากล

ฤดูร้อน - พาราด็อกซ์ (Paradox)
เมื่อ 15 ปีที่แล้ว
ค้นพบคอร์ด 41 เวอร์ชั่น
เธอที่รัก(วัยอลวน4 ตั้ม โอ๋รีเทอนร์) - พาราด็อกซ์ (Paradox)
เมื่อ 14 ปีที่แล้ว
ค้นพบคอร์ด 20 เวอร์ชั่น
คนบนฟ้า - พาราด็อกซ์ (Paradox)
เมื่อ 7 ปีที่แล้ว
ค้นพบคอร์ด 4 เวอร์ชั่น
มีแต่เธอ - พาราด็อกซ์ (PARADOX)
เมื่อ 15 ปีที่แล้ว
ค้นพบคอร์ด 1 เวอร์ชั่น
Sexy (เซ็กซี่) - พาราด็อกซ์ (Paradox)
เมื่อ 15 ปีที่แล้ว
ค้นพบคอร์ด 10 เวอร์ชั่น
กอดฉันไว้ (Ost.สามชุก) - พาราด็อกซ์ (Paradox)
เมื่อ 10 ปีที่แล้ว
ค้นพบคอร์ด 1 เวอร์ชั่น
ดาว - พาราด็อกซ์ (PARADOX)
เมื่อ 15 ปีที่แล้ว
ค้นพบคอร์ด 17 เวอร์ชั่น
ใครสักคน - พาราด็อกซ์ (Paradox)
เมื่อ 12 ปีที่แล้ว
ค้นพบคอร์ด 11 เวอร์ชั่น
กรงทอง - พาราด็อกซ์ (Paradox)
เมื่อ 15 ปีที่แล้ว
ค้นพบคอร์ด 10 เวอร์ชั่น
จิ๊บ ร.ด. - พาราด็อกซ์ (Paradox)
เมื่อ 12 ปีที่แล้ว
ค้นพบคอร์ด 3 เวอร์ชั่น
ผงาดง้ำค้ำโลก - พาราด็อกซ์ (Paradox)
เมื่อ 12 ปีที่แล้ว
ค้นพบคอร์ด 13 เวอร์ชั่น
ทาส - พาราด็อกซ์ (Paradox)
เมื่อ 15 ปีที่แล้ว
ค้นพบคอร์ด 16 เวอร์ชั่น
นักมายากล - พาราด็อกซ์ (PARADOX)
เมื่อ 15 ปีที่แล้ว
ค้นพบคอร์ด 14 เวอร์ชั่น
เพ้อ - พาราด็อกซ์ (PARADOX)
เมื่อ 15 ปีที่แล้ว
ค้นพบคอร์ด 3 เวอร์ชั่น
LOVE - พาราด็อกซ์ (Paradox)
เมื่อ 15 ปีที่แล้ว
ค้นพบคอร์ด 9 เวอร์ชั่น
เป็นวัยรุ่นมันเหนื่อย - พาราด็อกซ์ (Paradox)
เมื่อ 13 ปีที่แล้ว
ค้นพบคอร์ด 6 เวอร์ชั่น
อยู่ในใจ - พาราด็อกซ์ (Paradox)
เมื่อ 15 ปีที่แล้ว
ค้นพบคอร์ด 3 เวอร์ชั่น
ขอ - พาราด็อกซ์ (Paradox)
เมื่อ 15 ปีที่แล้ว
ค้นพบคอร์ด 4 เวอร์ชั่น
3มิติ - พาราด็อกซ์ (Paradox)
เมื่อ 15 ปีที่แล้ว
ค้นพบคอร์ด 14 เวอร์ชั่น
ไก่ - พาราด็อกซ์ (PARADOX)
เมื่อ 15 ปีที่แล้ว
ค้นพบคอร์ด 6 เวอร์ชั่น