คอร์ดเพลง นักมายากล - พาราด็อกซ์ (PARADOX)

Version 12
แกะโดย +^-Popsuke-^+
เมื่อ 10 มิ.ย.2549,02:20น.
ดู 577 ครั้ง
นักมายากล (โซโล่)

e -----------------------------------------------14-14--16-17-17-16h17h16------------------
B ----------------------16-16-16-17-17--------------------------------------------17------------
G -16-16-16-16----------------------------------------------------------------------------
D -----------------------------------------------------------------------------------------
A -----------------------------------------------------------------------------------------
E -----------------------------------------------------------------------------------------

e ---14--------------------------------------------------------------------------------------------
B ---------17-16-14-16-17-16-14-16-17-16h17h16-14-------------------------------
G ------------------------------------------------------------------------1614-13-------------
D -------------------------------------------------------------------------------------------16------
A ----------------------------------------------------------------------------------------------------
E -----------------------------------------------------------------------------------------

e -----------------------------------------------------------------------------------
B --------------------------------------------------------------------------------------
G ---------------------14---------------------------14----------------------------14------------
D --14-13-14-16---------16-14-13-14-16----------16-14-13-14-16-----------------
A -----------------------------------------------------------------------------------------
E -----------------------------------------------------------------------------------------

e --------------------------------------------14-16-1719รัว--------------
B -------------------------------14-16-17-----------------------------------------------
G ----------------13-14-16----------------------------------------------------------------
D --13-14-16------------------------------------------------------------------------------
A -----------------------------------------------------------------------------------------
E -----------------------------------------------------------------------------------------

e --17-17-16-16-14-1416h17--16-14-----------------------------------------------
B -----------------------------------------------1716h17h16-14------------------------
G ------------------------------------------------------------------------16-------------
D -----------------------------------------------------------------------------------------
A -----------------------------------------------------------------------------------------
E -----------------------------------------------------------------------------------------

e -----------------------------------------------------------------------------------
B --------------------------------------------------------------------------------------
G --14-13---------14-----------------------------14-----------------------------------
D ------------16---------16--14--13--14--16------------------------------------------
A -----------------------------------------------------------------------------------------
E -----------------------------------------------------------------------------------------

e -----------------------------------------------------------------------------------
B --------------------------------------------------------------------------------------
G ------------------13-14-16-----(เร็วๆ 4รอบ)--------------------------------------
D --13-14-16-----------------------------------------13-------------------------------
A -----------------------------------------------------------------14~~~--------------
E -----------------------------------------------------------------------------------------

รู้สึกตอนขึ้นจะมี /12 ที่เส้น 4 ด้วยนะคับ แต่เสียงมันไม่ชัดไม่แน่ใจ
เพิ่งหัดแกะเพลงอะคับ คงไม่ละเอียดเท่าไหร่
ถ้าผิดก็บอกกันนะคับ
คอร์ดเพลง นักมายากล

ความคิดเห็นเกี่ยวกับคอร์ดนี้

เวอร์ชั่นทั้งหมดของคอร์ดเพลงนี้

คอร์ดเพลง นักมายากล

38 | 4
โดย เก้า
เมื่อ 15 ปีที่แล้ว

คอร์ดเพลง นักมายากล

2 | 0
โดย Zeon
เมื่อ 15 ปีที่แล้ว

คอร์ดเพลง นักมายากล

0 | 0
โดย เกน
เมื่อ 12 ปีที่แล้ว

คอร์ดเพลง นักมายากล

0 | 0
โดย +^-Popsuke-^+
เมื่อ 13 ปีที่แล้ว

คอร์ดเพลง นักมายากล

0 | 0
โดย boyjovi
เมื่อ 13 ปีที่แล้ว

คอร์ดเพลง นักมายากล

0 | 0
โดย ไก่
เมื่อ 15 ปีที่แล้ว

คอร์ดเพลง นักมายากล

0 | 0
โดย Playboyzzz
เมื่อ 15 ปีที่แล้ว

คอร์ดเพลง นักมายากล

0 | 0
โดย เวสท์
เมื่อ 15 ปีที่แล้ว

คอร์ดเพลง นักมายากล

0 | 0
โดย bos
เมื่อ 15 ปีที่แล้ว

คอร์ดเพลง นักมายากล

0 | 0
โดย guitar_man
เมื่อ 15 ปีที่แล้ว

คอร์ดเพลง นักมายากล

0 | 0
โดย NV Pooh
เมื่อ 15 ปีที่แล้ว

คอร์ดเพลง นักมายากล

0 | 0
โดย ArmYmaruZ
เมื่อ 15 ปีที่แล้ว

เนื้อเพลง นักมายากล - พาราด็อกซ์ (PARADOX)

นักมายากล


Intro:


รัตติกาลร่าเริงก้องคำรามเบิกฟ้า

กลุ่มคนมากมายท่องเขตเมืองมายา

หนุ่มสาวซุกกองเพลิงอยู่ในดวงตา

จ้องมองที่งานการแสดงพิเศษ


นักมายากลระเบิดกลเกินพรรณนา

กระชากวิญญาณผู้ชมให้หลงลืมจากการเวลา

เขาเอาอะไรพอใส่ลงไปในกล่องดำหลงเหลือแต่ความว่างเปล่า


มีเด็กติดใจสงสัยบอกไปทำไมพี่สาวคู่รักของนักมายากลนั้น

เขาจึงไม่ลองทำให้หายลับไปดูสักที

มีเด็กติดใจสงสัยบอกไปทำไมพี่สาวคู่รักของนักมายากลนั้น

เขาจึงไม่ลองทำให้หายลับไปดูสักที


คงเป็นเพราะใจตัวเองง่ายดายเสกเธอหายตัวภายในพริบตา

มองความรักเธอเป็นเรื่องไร้ค่าก่อเกิดผลกลับต่างๆนาๆ

คนโห่ร้องแสดงความยินดีถูกกล่าวขานลือเลื่องปฐพี

ส่วนตัวเขานั้นน้ำตานองหน้าเพราะเธอนั้นหายไปตลอดกาล

Instru:

(ซ้ำทั้งหมด)

Instru:


* ฉันดั่งคนเล่นกลจนหยิ่งในศักดิ์ศรีอวดบารมีมาบดบังความรัก

ได้ทำร้ายใจเธอเจ็บปวดยิ่งนักทั้งนอกและในการแสดง

(ซ้ำ *,*)

Instru:

Cover เพลงนักมายากล


ยังไม่มี Cover เพลงนี้

[ ช่วยกันแบ่งปันคลิปเพลงที่คุณเล่นเอง ]

ฟังเพลง นักมายากล

ฤดูร้อน - พาราด็อกซ์ (Paradox)
เมื่อ 15 ปีที่แล้ว
ค้นพบคอร์ด 41 เวอร์ชั่น
เธอที่รัก(วัยอลวน4 ตั้ม โอ๋รีเทอนร์) - พาราด็อกซ์ (Paradox)
เมื่อ 14 ปีที่แล้ว
ค้นพบคอร์ด 20 เวอร์ชั่น
คนบนฟ้า - พาราด็อกซ์ (Paradox)
เมื่อ 8 ปีที่แล้ว
ค้นพบคอร์ด 4 เวอร์ชั่น
มีแต่เธอ - พาราด็อกซ์ (PARADOX)
เมื่อ 15 ปีที่แล้ว
ค้นพบคอร์ด 1 เวอร์ชั่น
Sexy (เซ็กซี่) - พาราด็อกซ์ (Paradox)
เมื่อ 16 ปีที่แล้ว
ค้นพบคอร์ด 10 เวอร์ชั่น
กอดฉันไว้ (Ost.สามชุก) - พาราด็อกซ์ (Paradox)
เมื่อ 10 ปีที่แล้ว
ค้นพบคอร์ด 1 เวอร์ชั่น
ดาว - พาราด็อกซ์ (PARADOX)
เมื่อ 15 ปีที่แล้ว
ค้นพบคอร์ด 17 เวอร์ชั่น
ใครสักคน - พาราด็อกซ์ (Paradox)
เมื่อ 12 ปีที่แล้ว
ค้นพบคอร์ด 11 เวอร์ชั่น
กรงทอง - พาราด็อกซ์ (Paradox)
เมื่อ 16 ปีที่แล้ว
ค้นพบคอร์ด 10 เวอร์ชั่น
จิ๊บ ร.ด. - พาราด็อกซ์ (Paradox)
เมื่อ 12 ปีที่แล้ว
ค้นพบคอร์ด 3 เวอร์ชั่น
ผงาดง้ำค้ำโลก - พาราด็อกซ์ (Paradox)
เมื่อ 13 ปีที่แล้ว
ค้นพบคอร์ด 13 เวอร์ชั่น
ทาส - พาราด็อกซ์ (Paradox)
เมื่อ 15 ปีที่แล้ว
ค้นพบคอร์ด 16 เวอร์ชั่น
นักมายากล - พาราด็อกซ์ (PARADOX)
เมื่อ 15 ปีที่แล้ว
ค้นพบคอร์ด 14 เวอร์ชั่น
เพ้อ - พาราด็อกซ์ (PARADOX)
เมื่อ 15 ปีที่แล้ว
ค้นพบคอร์ด 3 เวอร์ชั่น
LOVE - พาราด็อกซ์ (Paradox)
เมื่อ 15 ปีที่แล้ว
ค้นพบคอร์ด 9 เวอร์ชั่น
เป็นวัยรุ่นมันเหนื่อย - พาราด็อกซ์ (Paradox)
เมื่อ 14 ปีที่แล้ว
ค้นพบคอร์ด 6 เวอร์ชั่น
อยู่ในใจ - พาราด็อกซ์ (Paradox)
เมื่อ 15 ปีที่แล้ว
ค้นพบคอร์ด 3 เวอร์ชั่น
ขอ - พาราด็อกซ์ (Paradox)
เมื่อ 16 ปีที่แล้ว
ค้นพบคอร์ด 4 เวอร์ชั่น
3มิติ - พาราด็อกซ์ (Paradox)
เมื่อ 15 ปีที่แล้ว
ค้นพบคอร์ด 14 เวอร์ชั่น
ไก่ - พาราด็อกซ์ (PARADOX)
เมื่อ 15 ปีที่แล้ว
ค้นพบคอร์ด 6 เวอร์ชั่น