คอร์ดเพลง นายอย่าแฮงค์ - กะลา

Version 4
แกะโดย BossBangkapi
เมื่อ 2 ก.ย.2549,19:12น.
ดู 1071 ครั้ง
tab solo ครับผมเเกะเองอะน่ะครับ ผิดพลาดประการใดก็ขออภัยด้วยนะงับ
ท่อนเเรกนะครับ
2)------------------------------------------------------------------------------------------------------
3)-------------------------13/--14--13--14---16/--16~--16--14--16--14---13/----------
4)-14---16--14---16-------------------------------------------------------------------------------

2)----------------------------------------------------------------
3)-14--13--------13-------------------------------------------
4)-------------16--------16---14------------------------------
ท่อนหลัง
2)----------------------------------------------------------------------------------------------------------
3)------------------------13/--14--13---------13-----------------------------------------------------
4)-14---16--14--16---------------------16---------16---14/---14~--14---12---14------------
ปล. ผมค่อนข้างมันใจเเต่เอ็ฟเฟคผมตั้งเสียงไม่เหมือนเค้าเเต่เสียงใกล้เคียงมากครับ
คอร์ดเพลง นายอย่าแฮงค์

ความคิดเห็นเกี่ยวกับคอร์ดนี้

เนื้อเพลง นายอย่าแฮงค์ - กะลา

เพลง: นายอย่าแฮงค์

คำร้อง/ทำนอง: ยุทธพงษ์ แสงสุวรรณ
เรียบเรียง: ดนัย ธงสินธุศักดิ์

จะเป็นจะตายก็ได้เลย ก็พร้อมจะลุยแล้วเพื่อนเกลอ
จะหนักจะหนาเราพร้อมจะเจอ
จะเอาอย่างไงนายว่ามา ชนแก้วสัญญาเป็นเพื่อนตาย เพื่อนแท้คนเดียว
จะบุกน้ำลุยไฟจะเป็นยังไงนายขอมา เราลุยให้เลย

จะเป็นจะตายให้ได้เลย กับภาพที่เจอ+++เพื่อนเกลอ นายเปลี่ยนไป
นายควงแฟนเรามาเย้ยเรา นายทำอย่างนั้นไปได้ไง ทำร้ายทำลาย
ก็มาวันนี้นายเปลี่ยนไป นายเปลี่ยนไปแล้วนายเปลี่ยนไป นายลืมสัญญา

*เก๋านะเราไม่เก๋าแต่แฟนของเราเราทนไม่ไหว
(แฮงค์ นายอย่า แฮงค์ นายอย่า แฮงค์นายอย่างแฮงค์)
เก๋านะเราไม่เก๋าแต่เราแฟนของเราเราทนได้ไง

จะเป็นจะตายให้ได้เลย นายนำกับเรา+++เพื่อนเกลอ
มันเจ็บใจ เสียดายที่เราเคยไว้ใจ
นายทำอย่างนั้นไปได้ไง ทำร้ายทำลาย
ก็มาวันนี้นายเปลี่ยนไป นายเปลี่ยนไปแล้วนายเปลี่ยนไป นายลืมสัญญา

Cover เพลงนายอย่าแฮงค์


ยังไม่มี Cover เพลงนี้

[ ช่วยกันแบ่งปันคลิปเพลงที่คุณเล่นเอง ]

ฟังเพลง นายอย่าแฮงค์

ไม่เห็นฝุ่น - กะลา (KALA)
เมื่อ 9 ปีที่แล้ว
ค้นพบคอร์ด 3 เวอร์ชั่น
เธอเป็นแฟนฉันแล้ว - กะลา
เมื่อ 15 ปีที่แล้ว
ค้นพบคอร์ด 16 เวอร์ชั่น
ใจเรายังตรงกันอยู่ไหม - กะลา (Kala)
เมื่อ 7 ปีที่แล้ว
ค้นพบคอร์ด 4 เวอร์ชั่น
ขอเป็นตัวเลือก - กะลา
เมื่อ 15 ปีที่แล้ว
ค้นพบคอร์ด 9 เวอร์ชั่น
บอกสักคำ - กะลา
เมื่อ 15 ปีที่แล้ว
ค้นพบคอร์ด 15 เวอร์ชั่น
ถ้าเธอหลายใจ - กะลา
เมื่อ 13 ปีที่แล้ว
ค้นพบคอร์ด 10 เวอร์ชั่น
รอ - กะลา
เมื่อ 15 ปีที่แล้ว
ค้นพบคอร์ด 12 เวอร์ชั่น
เป็นแฟนกันตั้งแต่เมื่อไหร่ - กะลา
เมื่อ 12 ปีที่แล้ว
ค้นพบคอร์ด 7 เวอร์ชั่น
ทำใจให้ชิน - กะลา (Kala)
เมื่อ 9 ปีที่แล้ว
ค้นพบคอร์ด 1 เวอร์ชั่น
หยุด - กะลา (KALA)
เมื่อ 9 ปีที่แล้ว
ยังไม่มีคอร์ด
กะลา (ใช่ไหม) - กะลา KALA
เมื่อ 12 ปีที่แล้ว
ค้นพบคอร์ด 13 เวอร์ชั่น
ใช่ฉันหรือปล่าว - กะลา
เมื่อ 12 ปีที่แล้ว
ค้นพบคอร์ด 13 เวอร์ชั่น
เจ็บนี้มันลึก - กะลา
เมื่อ 13 ปีที่แล้ว
ค้นพบคอร์ด 16 เวอร์ชั่น
ปิดตา - กะลา
เมื่อ 13 ปีที่แล้ว
ค้นพบคอร์ด 11 เวอร์ชั่น
ใช่ฉันหรือเปล่า - กะลา
เมื่อ 12 ปีที่แล้ว
ค้นพบคอร์ด 32 เวอร์ชั่น
4 นาที - กะลา
เมื่อ 11 ปีที่แล้ว
ค้นพบคอร์ด 18 เวอร์ชั่น
นาฬิกาของคนรักกัน - กะลา (KALA)
เมื่อ 7 ปีที่แล้ว
ค้นพบคอร์ด 2 เวอร์ชั่น
ขอแค่ได้ฝัน - กะลา
เมื่อ 12 ปีที่แล้ว
ค้นพบคอร์ด 4 เวอร์ชั่น
ไม่มีทาง - กะลา
เมื่อ 14 ปีที่แล้ว
ค้นพบคอร์ด 7 เวอร์ชั่น
คนดีที่เย็นชา - กะลา (Kala)
เมื่อ 11 ปีที่แล้ว
ค้นพบคอร์ด 4 เวอร์ชั่น