คอร์ดเพลง นี่แหละความเสียใจ - โปเตโต้ (Potato)

Version 16
แกะโดย หยก
เมื่อ 4 พ.ค.2550,02:03น.
ดู 536 ครั้ง

Intro
C
1|---------------------------1--------0------------------------------------
2|------------3--1--------------------------1-----------------------------
3|---------0--------0-------------0-------------0-------------------------
4|------2--------------2-------2---------2--------------------------------
5|---3----------------------3--------3-------------------------------------
6|---------------------------------------------------------------------------
Am
1|--------------------------------3-------------------------------------------
2|--------------3---1----------------1----3----5-------------------------
3|----------2-----------2------------------------6---------------------------
4|-------2------------------2--------2----4---------------------------------
5|----0------------------------------------------------------------------------
6|------------------------------------------------------------------------------
Dm7
1|---1---------1------------------1---1------3------5-----------------------
2|----------1---------------2/1----------------------5-----------------------
3|---2--2--------------2--------------2------4-------------------------------
4|-------------------0----------------------------------------------------------
5|-------------------------------------------------------------------------------
6|-------------------------------------------------------------------------------
G
1|---------------1--------3----------------------------------------------------
2|-------------------------0----------------------------------------------------
3|---------0--------------0-----------------------------------------------------
4|------------0-----------0-----------------------------------------------------
5|----2-------------------2-----------------------------------------------------
6|----3-------------------3-----------------------------------------------------

ลองดูนะคับ
คอร์ดเพลง นี่แหละความเสียใจ

ความคิดเห็นเกี่ยวกับคอร์ดนี้

เวอร์ชั่นทั้งหมดของคอร์ดเพลงนี้

คอร์ดเพลง นี่แหละความเสียใจ

42 | 5
โดย มิกกี้
เมื่อ 12 ปีที่แล้ว

คอร์ดเพลง นี่แหละความเสียใจ

0 | 0
โดย มอส
เมื่อ 11 ปีที่แล้ว

คอร์ดเพลง นี่แหละความเสียใจ

0 | 0
โดย เนื่องเขตซอย10
เมื่อ 11 ปีที่แล้ว

คอร์ดเพลง นี่แหละความเสียใจ

0 | 0
โดย te
เมื่อ 12 ปีที่แล้ว

คอร์ดเพลง นี่แหละความเสียใจ

0 | 0
โดย คนผ่านมา
เมื่อ 12 ปีที่แล้ว

คอร์ดเพลง นี่แหละความเสียใจ

0 | 0
โดย McClane
เมื่อ 12 ปีที่แล้ว

คอร์ดเพลง นี่แหละความเสียใจ

0 | 0
โดย McClane
เมื่อ 12 ปีที่แล้ว

คอร์ดเพลง นี่แหละความเสียใจ

0 | 0
โดย McClane
เมื่อ 12 ปีที่แล้ว

คอร์ดเพลง นี่แหละความเสียใจ

0 | 0
โดย ราเมง..........ชอบมาก
เมื่อ 12 ปีที่แล้ว

คอร์ดเพลง นี่แหละความเสียใจ

0 | 0
โดย เอิง
เมื่อ 12 ปีที่แล้ว

คอร์ดเพลง นี่แหละความเสียใจ

0 | 0
โดย ttttttt
เมื่อ 12 ปีที่แล้ว

คอร์ดเพลง นี่แหละความเสียใจ

0 | 0
โดย g
เมื่อ 12 ปีที่แล้ว

คอร์ดเพลง นี่แหละความเสียใจ

0 | 0
โดย g
เมื่อ 12 ปีที่แล้ว

คอร์ดเพลง นี่แหละความเสียใจ

0 | 0
โดย kolp
เมื่อ 12 ปีที่แล้ว

คอร์ดเพลง นี่แหละความเสียใจ

0 | 0
โดย สุดหล่อ
เมื่อ 12 ปีที่แล้ว

คอร์ดเพลง นี่แหละความเสียใจ

0 | 0
โดย SAMURAI
เมื่อ 12 ปีที่แล้ว

คอร์ดเพลง นี่แหละความเสียใจ

0 | 0
โดย YellleY_p kay
เมื่อ 12 ปีที่แล้ว

คอร์ดเพลง นี่แหละความเสียใจ

0 | 0
โดย จีบัน
เมื่อ 12 ปีที่แล้ว

คอร์ดเพลง นี่แหละความเสียใจ

0 | 0
โดย จีบัน
เมื่อ 12 ปีที่แล้ว

คอร์ดเพลง นี่แหละความเสียใจ

0 | 0
โดย M
เมื่อ 12 ปีที่แล้ว

คอร์ดเพลง นี่แหละความเสียใจ

0 | 0
โดย อั๋น
เมื่อ 12 ปีที่แล้ว

คอร์ดเพลง นี่แหละความเสียใจ

0 | 0
โดย เด็กตรีมิตร06อายุ15
เมื่อ 12 ปีที่แล้ว

คอร์ดเพลง นี่แหละความเสียใจ

0 | 0
โดย มิ้น
เมื่อ 12 ปีที่แล้ว

คอร์ดเพลง นี่แหละความเสียใจ

0 | 0
โดย หยก
เมื่อ 12 ปีที่แล้ว

คอร์ดเพลง นี่แหละความเสียใจ

0 | 0
โดย มิ้น
เมื่อ 12 ปีที่แล้ว

คอร์ดเพลง นี่แหละความเสียใจ

0 | 0
โดย มิ้น
เมื่อ 12 ปีที่แล้ว

คอร์ดเพลง นี่แหละความเสียใจ

0 | 0
โดย ppppp
เมื่อ 12 ปีที่แล้ว

คอร์ดเพลง นี่แหละความเสียใจ

0 | 0
โดย Tae' Tuxedo
เมื่อ 12 ปีที่แล้ว

คอร์ดเพลง นี่แหละความเสียใจ

0 | 0
โดย benz_v2
เมื่อ 12 ปีที่แล้ว

คอร์ดเพลง นี่แหละความเสียใจ

0 | 0
โดย Nuu - M!nT
เมื่อ 12 ปีที่แล้ว

คอร์ดเพลง นี่แหละความเสียใจ

0 | 0
โดย vanmaster
เมื่อ 12 ปีที่แล้ว

คอร์ดเพลง นี่แหละความเสียใจ

0 | 0
โดย Tae' Tuxedo
เมื่อ 12 ปีที่แล้ว

คอร์ดเพลง นี่แหละความเสียใจ

0 | 0
โดย Tae' Tuxedo
เมื่อ 12 ปีที่แล้ว

คอร์ดเพลง นี่แหละความเสียใจ

0 | 0
โดย เด็กเเนว_CLUB
เมื่อ 12 ปีที่แล้ว

คอร์ดเพลง นี่แหละความเสียใจ

0 | 0
โดย ...
เมื่อ 12 ปีที่แล้ว

คอร์ดเพลง นี่แหละความเสียใจ

0 | 0
โดย อ้น
เมื่อ 12 ปีที่แล้ว

คอร์ดเพลง นี่แหละความเสียใจ

0 | 0
โดย อ้น
เมื่อ 12 ปีที่แล้ว

คอร์ดเพลง นี่แหละความเสียใจ

0 | 0
โดย เกือบเกมือนอะดิ อิอิอิ
เมื่อ 12 ปีที่แล้ว

เนื้อเพลง นี่แหละความเสียใจ - โปเตโต้ (Potato)

rtist : Potato
lbum : Sense
Song : นี่แหละความเสียใจ

*** Tune to นะเว้ย ***

Intro


ทุกเรื่องราวที่เข้ามา ที่เจ็บและช้ำ จนทำให้ฉันมีน้ำตา แม้ว่าทรมานเท่าไหร่ ฉันเรียกมันว่าความเสียใจ

แล้วเรื่องราวในวันนี้ ที่เกิดและมันกำลังกระทบใจของฉัน ก็สอนให้ได้เรียนรู้ใหม่ ในคำที่ฉันเคยเข้าใจ

สิ่งใดที่เคยได้เจอกลายเป็นแค่เพียง เรื่องเล็กน้อยไปในพริบตา

เสียงของเธอที่ร่ำลา ได้สอนให้รู้ว่า อย่าไปจำความช้ำที่มี

* นี่แหละคือความเสียใจ ความเสียใจมันเป็นอย่างนี้จำซะใหม่

ต้องเจ็บจนร้องไห้โดยไม่อาย ต้องช้ำทุรนทุรายขนาดนี้

ที่ผ่านมามองย้อนไป ลองคิดดูบางทีก็เสียดายน้ำตา

แต่เธอทำให้ได้รู้ว่า ค่าของน้ำตามันคู่ควร กับการต้องเสียเธอ

Solo


แม้ฉันยืนแทบไม่ไหว ก็อยากขอพูดอะไรสักนิดนึงถึงเธอ ขอโทษที่ไม่ดีเหมือนใคร และขอบคุณที่สอนให้เข้าใจ

ว่าเรื่องที่เคยได้เจอมันก็แค่เพียง สิ่งเล็กน้อยที่เปลืองน้ำตา

เสียงของเธอที่ร่ำลา ได้สอนให้รู้ว่า อย่าไปจำความช้ำที่มี

(*)

Solo


เจ็บวันนี้ทำให้รู้ว่า ค่าของน้ำตามันคู่ควร



เพราะจางเยย = =
อาจจะไม่ถูกชัวร์ก็ช่วยแก้ด้วยนะคับ

Cover เพลงนี่แหละความเสียใจ


ยังไม่มี Cover เพลงนี้

[ ช่วยกันแบ่งปันคลิปเพลงที่คุณเล่นเอง ]

ฟังเพลง นี่แหละความเสียใจ

เธอยัง - โปเตโต้ (Potato)
เมื่อ 8 ปีที่แล้ว
ค้นพบคอร์ด 7 เวอร์ชั่น
แพ้ใจ - โปเตโต้ (POTATO)
เมื่อ 8 ปีที่แล้ว
ค้นพบคอร์ด 4 เวอร์ชั่น
แชร์ (Share) - โปเตโต้ (Potato)
เมื่อ 10 ปีที่แล้ว
ค้นพบคอร์ด 1 เวอร์ชั่น
ไม่ให้เธอไป - โปเตโต้ (Potato)
เมื่อ 16 ปีที่แล้ว
ค้นพบคอร์ด 28 เวอร์ชั่น
ปากดี - โปเตโต้ (Potato)
เมื่อ 14 ปีที่แล้ว
ค้นพบคอร์ด 41 เวอร์ชั่น
รักเธอไปทุกวัน - โปเตโต้ (Potato)
เมื่อ 11 ปีที่แล้ว
ค้นพบคอร์ด 13 เวอร์ชั่น
ยิ่งใกล้ยิ่งเจ็บ - โปเตโต้ (Potato)
เมื่อ 14 ปีที่แล้ว
ค้นพบคอร์ด 6 เวอร์ชั่น
ขอบคุณที่รักกัน - โปเตโต้ (Potato)
เมื่อ 13 ปีที่แล้ว
ค้นพบคอร์ด 26 เวอร์ชั่น
ไม่รู้จะอธิบายยังไง - โปเตโต้ (POtATo)
เมื่อ 8 ปีที่แล้ว
ค้นพบคอร์ด 1 เวอร์ชั่น
อารมณ์สีเทา - โปเตโต้(Potato)
เมื่อ 11 ปีที่แล้ว
ค้นพบคอร์ด 10 เวอร์ชั่น
หวังดีเสมอ - โปเตโต้ (Potato)
เมื่อ 14 ปีที่แล้ว
ค้นพบคอร์ด 10 เวอร์ชั่น
ภาษากาย - โปเตโต้ (Potato)
เมื่อ 14 ปีที่แล้ว
ค้นพบคอร์ด 17 เวอร์ชั่น
กล้าพอไหม - โปเตโต้ (Potato)
เมื่อ 18 ปีที่แล้ว
ค้นพบคอร์ด 20 เวอร์ชั่น
เพียงพอ - โปเตโต้ (Potato)
เมื่อ 12 ปีที่แล้ว
ค้นพบคอร์ด 34 เวอร์ชั่น
ขอบคุณที่รักกัน(Acoustic) - โปเตโต้ (Potato)
เมื่อ 13 ปีที่แล้ว
ค้นพบคอร์ด 17 เวอร์ชั่น
นี่แหละความเสียใจ - โปเตโต้ (Potato)
เมื่อ 12 ปีที่แล้ว
ค้นพบคอร์ด 39 เวอร์ชั่น
ชีวิตที่ขาดเธอ - โปเตโต้(potato)
เมื่อ 12 ปีที่แล้ว
ค้นพบคอร์ด 10 เวอร์ชั่น
ฉันคิดถึงเธอ - โปเตโต้ (POTATO)
เมื่อ 9 ปีที่แล้ว
ค้นพบคอร์ด 1 เวอร์ชั่น
คำตอบของหัวใจ - โปเตโต้ (Potato)
เมื่อ 12 ปีที่แล้ว
ค้นพบคอร์ด 21 เวอร์ชั่น
ทนพิษบาดแผลไม่ไหว - โปเตโต้ (Potato)
เมื่อ 10 ปีที่แล้ว
ค้นพบคอร์ด 6 เวอร์ชั่น