คอร์ดเพลง บันไดเสียง - โปเตโต้ (Potato)

Version 1
แกะโดย Ricardo Arakas
เมื่อ 3 มี.ค.2550,19:29น.
ดู 385 ครั้ง

intro100%

3/---------------------------7/12----12-12---12/11--
4/------------------ 7--7---x--x----- x---x------x--x---
5/-----------5--5--5--5---5/10----10-10---10/9----
6/----------------------------------------------------------

3/----------5--14--14--14--14----14/16/14--------
4/---5--5--5---x----x----x----x------x----x---x---------
5/---3--3--3/12--12--12--12----12/14/12--------
6/---------------------------------------------------------

3/-----------------4/9--9--9----9/7------------
4/--4--4--4--4--4/x--x---x----x/x------------
5/--2--2--2--2--2/7--7--7----7/5-----------
6/---------------------------------------------------

3/--------------------------------------
4/--5-----------------------------------
5/--5--5--5--5--5--5--3--------
6/--3--3--3--3--3--3--1--------

จังหวะนี้กลองขึ้น เล่น 2 รอบ
3/---------------------7/12----12-12---12/11--
4/-------------7--7---x--x----- x---x------x--x---
5/-------------5--5---5/10----10-10---10/9----
6/----------------------------------------------------------

3/----------5--14--14--14--14----14/16/14--------
4/---5--5--5---x----x----x----x------x----x---x---------
5/---3--3--3/12--12--12--12----12/14/12--------
6/---------------------------------------------------------

3/-----------------4/9--9--9----9/7------------
4/--4--4--4--4--4/x--x---x----x/x------------
5/--2--2--2--2--2/7--7--7----7/5-----------
6/---------------------------------------------------

3/------12--12--12--14--14--14--14--10-10-10--10--12--12--12--12---
4/-------x----x----x----x-----x---x----x----x---x----x---x----x----x----x----x----
5/------10--10--10--12--12--12--12---8---8---8---8---10--10--10--10---
6/----------------------------------------------------------------------------------------

คอร์ดเพลง บันไดเสียง

ความคิดเห็นเกี่ยวกับคอร์ดนี้

เนื้อเพลง บันไดเสียง - โปเตโต้ (Potato)

ข้องใจ เดินออกไปเพื่อตามฝัน ใครทำไมต้องมองฉันว่าบ้าบอ
รู้เลย บนทางเดินสู่จุดหมาย คนที่คอยจะทำร้ายต้องเฝ้ารอ
แต่ ไม่มีทางจะยอมให้ใครเปลี่ยนทิศที่เราอยากไป ไม่มีวันแพ้เสียงใคร

*จะใช้ ใช้คำเหล่านั้น ที่เขาดูถูกฉัน ให้เหมือนเป็นบันได
เหยียบไปสู่ฝัน คว้ามันให้ถึง ขอดึงลงมา สุดฟ้าไม่หวั่น แล้วคอยดู

สักวัน ถ้าเกิดเราต้องผิดพลั้ง จนหมดแรงไม่มีหวังให้เดินต่อ
รู้ดี มีกี่คนจะคอยช้ำ มันยิ่งทำให้ใจฉันไม่เคยฝ่อ
จะ ไม่มีทางที่ยอมให้ใครเปลี่ยนทิศที่เราอยากไป ไม่มีวันแพ้เสียงใคร

(Repeat *,*)

ฟังแล้ว เพราะและมันดี ^^

We Love Potato

Cover เพลงบันไดเสียง


ยังไม่มี Cover เพลงนี้

[ ช่วยกันแบ่งปันคลิปเพลงที่คุณเล่นเอง ]

ฟังเพลง บันไดเสียง

เธอยัง - โปเตโต้ (Potato)
เมื่อ 8 ปีที่แล้ว
ค้นพบคอร์ด 7 เวอร์ชั่น
แพ้ใจ - โปเตโต้ (POTATO)
เมื่อ 7 ปีที่แล้ว
ค้นพบคอร์ด 4 เวอร์ชั่น
แชร์ (Share) - โปเตโต้ (Potato)
เมื่อ 10 ปีที่แล้ว
ค้นพบคอร์ด 1 เวอร์ชั่น
ไม่ให้เธอไป - โปเตโต้ (Potato)
เมื่อ 15 ปีที่แล้ว
ค้นพบคอร์ด 28 เวอร์ชั่น
ปากดี - โปเตโต้ (Potato)
เมื่อ 13 ปีที่แล้ว
ค้นพบคอร์ด 41 เวอร์ชั่น
รักเธอไปทุกวัน - โปเตโต้ (Potato)
เมื่อ 11 ปีที่แล้ว
ค้นพบคอร์ด 13 เวอร์ชั่น
ยิ่งใกล้ยิ่งเจ็บ - โปเตโต้ (Potato)
เมื่อ 14 ปีที่แล้ว
ค้นพบคอร์ด 6 เวอร์ชั่น
ขอบคุณที่รักกัน - โปเตโต้ (Potato)
เมื่อ 13 ปีที่แล้ว
ค้นพบคอร์ด 26 เวอร์ชั่น
ไม่รู้จะอธิบายยังไง - โปเตโต้ (POtATo)
เมื่อ 8 ปีที่แล้ว
ค้นพบคอร์ด 1 เวอร์ชั่น
อารมณ์สีเทา - โปเตโต้(Potato)
เมื่อ 11 ปีที่แล้ว
ค้นพบคอร์ด 10 เวอร์ชั่น
หวังดีเสมอ - โปเตโต้ (Potato)
เมื่อ 13 ปีที่แล้ว
ค้นพบคอร์ด 10 เวอร์ชั่น
ภาษากาย - โปเตโต้ (Potato)
เมื่อ 13 ปีที่แล้ว
ค้นพบคอร์ด 17 เวอร์ชั่น
กล้าพอไหม - โปเตโต้ (Potato)
เมื่อ 2020 ปีที่แล้ว
ค้นพบคอร์ด 20 เวอร์ชั่น
เพียงพอ - โปเตโต้ (Potato)
เมื่อ 12 ปีที่แล้ว
ค้นพบคอร์ด 34 เวอร์ชั่น
ขอบคุณที่รักกัน(Acoustic) - โปเตโต้ (Potato)
เมื่อ 13 ปีที่แล้ว
ค้นพบคอร์ด 17 เวอร์ชั่น
นี่แหละความเสียใจ - โปเตโต้ (Potato)
เมื่อ 12 ปีที่แล้ว
ค้นพบคอร์ด 39 เวอร์ชั่น
ชีวิตที่ขาดเธอ - โปเตโต้(potato)
เมื่อ 12 ปีที่แล้ว
ค้นพบคอร์ด 10 เวอร์ชั่น
ฉันคิดถึงเธอ - โปเตโต้ (POTATO)
เมื่อ 8 ปีที่แล้ว
ค้นพบคอร์ด 1 เวอร์ชั่น
คำตอบของหัวใจ - โปเตโต้ (Potato)
เมื่อ 11 ปีที่แล้ว
ค้นพบคอร์ด 21 เวอร์ชั่น
ทนพิษบาดแผลไม่ไหว - โปเตโต้ (Potato)
เมื่อ 10 ปีที่แล้ว
ค้นพบคอร์ด 6 เวอร์ชั่น