คอร์ดเพลง บัวลอย - คาราบาว

Version 3
แกะโดย ล็อตโต้ วงสแปช แห่งจังหวัด อุดร
เมื่อ 30 ก.ค.2550,23:31น.
ดู 629 ครั้ง

Solo ท่อน กลาง จัดให้ เด็ก อุดร วง สแปช (แปลว่า ที่ว่าง ภาษาชีวะ)
การเล่น บัวลอย จะช่ายกีต้าร์ 3 ตัว แต่ ผม สามารถเล่นได้ ในตัวเดียว เพราะ มันง่าย
เริ่มเลย
e-------------------------------------------------------------------------------
b--10^---10^-10^------------------------------------------------7 (ให้ อาร์โมนิก ออนกับ ช่อง 10)---
g----------------------9^--7 (ให้ อาร์โมนิก ออนกับ ช่อง 9)---11--------------------------------
d---------------------------------------------------------------------------------
a-------------------------------------------------------------------------------
E-------------------------------------------------------------------------------
---
e----------------------------------------------------------------------------7-10-7--10-7
b--12----(จิ้มช่อง)19-------------------------------7---7--10--7--10-----------------
g----------------------------------7----7--9--7--9---9-------------------------------------
d-------------------------9--7-9---9-------------------------------------------------------
a---------------------------------------------------------------------------------------------
E----------------------------------------------------------------------------------------------
--
e---------------------------
b----------------------------
g----------------------7-9^-7
d---------------7--9-
a-2-0-2-59
E------------------------
--
e
b-7--------- 7----------7
g---9--7-------9--7------9--7----7
d---------9----------9-----------9----9----7--*9*
a------------------------------------------9
E
--- เล่นซ้ำ 3 รอบนะ แล้ว ท่อนสุดท้าย ตรง *9* จะเปลี่ยนเป็นช่องที่ 8 นะครับ--

ผมเล่นกีต้าร์มา 3 ปี แล้วไม่มีใครสอนเรียนเอง ส่วนมากไปดู คอนเสริญนะครับจะได้ผลดีมาดูมือกีต้าร์อย่างเดียว แล้วก็มา จำ ท่อนดูเอา ดีหน่อยที่น้าผมเป็น เจ้าของ ห้องอัด ที่ อัดเพลงของ วงคาราบาว ชุดแรก ผมเลย มีโอกาส ชิดใกล้ ผมก็ไม่มีอะไรมาก แค่ โน๊ต ยังไม่รู้เลย นะครับ เขียนแท็ปก็ พอให้คนอื่นเข้าใจ อะครับ อยากได้เพลงอะไรก็ แอดมาได้ ที่ lotto12546hotmail.com
คอร์ดเพลง บัวลอย

ความคิดเห็นเกี่ยวกับคอร์ดนี้

เนื้อเพลง บัวลอย - คาราบาว

อินโทรนะครับ
1+
2+
3+


1+
2+
3+


1+
2+
3+


1+
2+
3+

INTRO: (2 ครั้ง)


* บัวลอยเจ้าเพื่อนยาก

ทําไมจากข้าเร็วเกินไป

บัวลอยไปอยู่ที่ไหน

เคยรู้บ้างไหมโหนกคิดคํานึง ถึงบัวลอย
SOLO: (2 ครั้ง)


บัวลอยเขาเป็นชายหนุ่ม

ตาเหล่ หลังงุ้ม เด๋อๆ ด๋าๆ

รูปร่างแม้ไม่โสภา

จิตใจลํ้าฟ้าดังสมญาบัวลอย

เป็นเพื่อนคุยยามเพื่อนว้าเหว่


เป็นพ่อครัวยามเพื่อนหิวโหย

เป็นหมอใหญ่ยามเพื่อนโอดโอย

หาหยูกยามารักษาบรรเทา

บัวลอยถึงวัยเกณฑ์ทหาร

พิกลพิการยังดีหนึ่งประเภทสอง

อาสารับใช้ชาติพี่น้อง

หัวใจคับพองกล้าหาญอดทน

เป็นคนหนักเอาเบาสู้

อุตส่าห์มานะถ่อมตน

ช่วยเหลือเพื่อนๆ ทุกคน

ร่วมแต่ทุกข์สุขไม่สนใจ
SOLO: (2 ครั้ง)
(ซํ้า *)


วันหนึ่งมีเสียงปืนคําราม

บัวลอยถูกหามมาในเปลผ้าใบ

ยังละเมอห่วงว่าใครเป็นอะไร

คือคําพูดสุดท้ายของชายชื่อบัวลอย

ตั้งแต่วันนั้นยันวันนี้

แสงตะเกียงริบหรี่ที่บ้านไร่ปลายดอย

ไม่มีชายคนที่ชื่อบัวลอย

ความเหงาหงอยค่อยเข้าปกคลุม
SOLO:


** โลกนี้ไม่สมประกอบ

เพราะบางคนชอบเอาแต่ประโยชน์ส่วนตน

โลกนี้มีสักกี่คน

เป็นบัวหลุดพ้นดังคนชื่อบัวลอย (บัวลอย)

(ซํ้า **)
SOLO: (2 ครั้ง)
(ซํ้า **)
SOLO: (4 ครั้ง)




Cover เพลงบัวลอย


ยังไม่มี Cover เพลงนี้

[ ช่วยกันแบ่งปันคลิปเพลงที่คุณเล่นเอง ]

ฟังเพลง บัวลอย

ทะเลใจ - คาราบาว
เมื่อ 12 ปีที่แล้ว
ค้นพบคอร์ด 11 เวอร์ชั่น
เดือนเพ็ญ - คาราบาว
เมื่อ 15 ปีที่แล้ว
ค้นพบคอร์ด 15 เวอร์ชั่น
คนเก็บฟืน - คาราบาว
เมื่อ 14 ปีที่แล้ว
ค้นพบคอร์ด 10 เวอร์ชั่น
สัญญาหน้าฝน - คาราบาว
เมื่อ 11 ปีที่แล้ว
ค้นพบคอร์ด 6 เวอร์ชั่น
รั้วทะเล - คาราบาว
เมื่อ 12 ปีที่แล้ว
ค้นพบคอร์ด 2 เวอร์ชั่น
วณิพก - คาราบาว
เมื่อ 16 ปีที่แล้ว
ค้นพบคอร์ด 18 เวอร์ชั่น
รักต้องสู้ - คาราบาว
เมื่อ 11 ปีที่แล้ว
ค้นพบคอร์ด 17 เวอร์ชั่น
ลุงขี้เมา - คาราบาว
เมื่อ 16 ปีที่แล้ว
ค้นพบคอร์ด 12 เวอร์ชั่น
กัญชา - คาราบาว
เมื่อ 16 ปีที่แล้ว
ค้นพบคอร์ด 9 เวอร์ชั่น
นางงามตู้กระจก - คาราบาว
เมื่อ 14 ปีที่แล้ว
ค้นพบคอร์ด 6 เวอร์ชั่น
หลงวัฒน์ - คาราบาว
เมื่อ 11 ปีที่แล้ว
ค้นพบคอร์ด 8 เวอร์ชั่น
ผู้ปิดทองหลังพระ คอร์ด - แอ๊ด คาราบาว
เมื่อ 7 ปีที่แล้ว
ค้นพบคอร์ด 2 เวอร์ชั่น
คนล่าฝัน - คาราบาว
เมื่อ 10 ปีที่แล้ว
ค้นพบคอร์ด 3 เวอร์ชั่น
เจ้าตาก - คาราบาว
เมื่อ 12 ปีที่แล้ว
ค้นพบคอร์ด 9 เวอร์ชั่น
เพื่อชีวิตติดล้อ - คาราบาว
เมื่อ 9 ปีที่แล้ว
ค้นพบคอร์ด 2 เวอร์ชั่น
แร้งคอย - คาราบาว
เมื่อ 12 ปีที่แล้ว
ค้นพบคอร์ด 8 เวอร์ชั่น
มนต์เพลงคาราบาว - คาราบาว
เมื่อ 16 ปีที่แล้ว
ค้นพบคอร์ด 2 เวอร์ชั่น
ยายสำอาง - คาราบาว
เมื่อ 12 ปีที่แล้ว
ค้นพบคอร์ด 3 เวอร์ชั่น
คนหนังเหนียว - คาราบาว
เมื่อ 11 ปีที่แล้ว
ค้นพบคอร์ด 7 เวอร์ชั่น
บัวลอย - คาราบาว
เมื่อ 12 ปีที่แล้ว
ค้นพบคอร์ด 10 เวอร์ชั่น