คอร์ดเพลง บ้าบอ - ซิลลี่ ฟูลส์ (Silly Fools)

Version 2
แกะโดย บีเตยงาม
เมื่อ 1 มี.ค.2549,15:42น.
ดู 456 ครั้ง
ฟังตามเพลงโดยท่อนแรกจะรัวปิ๊ก

1)------------------------------------------------------------------------------------------------------
2)------------------------------------------------------------------------------------------------------
3)------------------------------------------------------------------------------------------------------
4)--12--11-12--14--17--14--12---11-12--14---12---11--12--10---9-------------------
5)--10---9--10--12--15--12--10----9--10--12---10---9---10---9----7--------------------
6)-------------------------------------------------------------------------------------------------------

ท่อนนี้ใช้ความเร็วนิดนึงคับ

1)-------------------------------------------------------------------------------------------------------
2)-----------------------------------------13---15----------------------------------------------------
3)-------10-------------12--------14----------------------------------------------------------------
4)--12-------12--10-------10-----------------------------------------------------------------------
5)-------------------------------------------------------------------------------------------------------
6)-------------------------------------------------------------------------------------------------------

1)------13-15-17-15-13-----15-13-----15-13-------------------13-15-13-22-17------------
2)--15-----------------------15---------15---------15-13---13-15----------------------20-18----
3)-------------------------------------------------------------14--------------------------------------19-
4)-----------------------------------------------------------------------------------------------------------
5)-----------------------------------------------------------------------------------------------------------
6)-----------------------------------------------------------------------------------------------------------

ที่เหลือก็ง่ายแล้วคับ...ที่สำคัญต้องเล่นตามเพลงนะคับ
คอร์ดเพลง บ้าบอ

ความคิดเห็นเกี่ยวกับคอร์ดนี้

เวอร์ชั่นทั้งหมดของคอร์ดเพลงนี้

คอร์ดเพลง บ้าบอ

25 | 3
โดย เป้
เมื่อ 13 ปีที่แล้ว

คอร์ดเพลง บ้าบอ

0 | 0
โดย The King of MOTA
เมื่อ 12 ปีที่แล้ว

คอร์ดเพลง บ้าบอ

0 | 0
โดย เอก
เมื่อ 13 ปีที่แล้ว

คอร์ดเพลง บ้าบอ

0 | 0
โดย ทัช LOVE FIST
เมื่อ 13 ปีที่แล้ว

คอร์ดเพลง บ้าบอ

0 | 0
โดย ทัชLOVE FIST
เมื่อ 13 ปีที่แล้ว

คอร์ดเพลง บ้าบอ

0 | 0
โดย NV Pooh
เมื่อ 13 ปีที่แล้ว

คอร์ดเพลง บ้าบอ

0 | 0
โดย NV Pooh
เมื่อ 13 ปีที่แล้ว

คอร์ดเพลง บ้าบอ

0 | 0
โดย NV Pooh
เมื่อ 13 ปีที่แล้ว

คอร์ดเพลง บ้าบอ

0 | 0
โดย ิbomberman
เมื่อ 13 ปีที่แล้ว

คอร์ดเพลง บ้าบอ

0 | 0
โดย นายกีต้าร์
เมื่อ 13 ปีที่แล้ว

คอร์ดเพลง บ้าบอ

0 | 0
โดย บีเตยงาม
เมื่อ 13 ปีที่แล้ว

เนื้อเพลง บ้าบอ - ซิลลี่ ฟูลส์ (Silly Fools)

title : บ้าบอ
artist : silly fools
album : juicy
label : more music

intro :
/



อยากได้ก็ให้ หากไม่สูงเกินไป

อยากกลายไปเป็นดาวแถวเดือนไป

ขอให้เธอพอใจ ฉันให้ได้เพียงเท่านี้


** ต้องการแค่ไหน ก็จะให้เธอไป

ตอบแทนด้วยดอกไม้ ด้วยหัวใจ

อาจจะน้อยเกินไป แต่ให้ได้เพียงเท่านี้

ไม่เคยพอใจเลยซักที


* บ้าบอ ฉันคงไม่บ้าพอ

ที่จะรักคนที่บ้าบอ

ให้รักแล้วไม่เคยพออย่างเธอ

(ซ้ำ *)
(ดนตรี)


อาจใช่ อาจไม่ อาจจะค้างคาใจ

กรีดเลือด กรีดเนื้อ ก็จะให้ไป

ขอให้เธอพอใจ ฉันให้ได้เพียงเท่านี้

(ซ้ำ ** * *)


จะรักแค่ไหนไม่เคยพอ

(เธอต้องการมากไปกว่านั้น)

ดีและพร้อมก็ไม่พอ... เธอต้อง

(เธอต้องการมากไปกว่านั้น)

(ดนตรี)



(ซ้ำ * * * *)
(ดนตรี)
....
(
)


Cover เพลงบ้าบอ


ยังไม่มี Cover เพลงนี้

[ ช่วยกันแบ่งปันคลิปเพลงที่คุณเล่นเอง ]

ฟังเพลง บ้าบอ

วัดใจ - ซิลลี่ ฟูลส์ (Silly Fools)
เมื่อ 15 ปีที่แล้ว
ค้นพบคอร์ด 48 เวอร์ชั่น
ขี้หึง - ซิลลี่ ฟูลส์ (Silly Fools)
เมื่อ 13 ปีที่แล้ว
ค้นพบคอร์ด 10 เวอร์ชั่น
ผิดที่ไว้ใจ - ซิลลี่ ฟูลส์ (Silly Fools)
เมื่อ 12 ปีที่แล้ว
ค้นพบคอร์ด 18 เวอร์ชั่น
โง่ - ซิลลี่ ฟูลส์ (Silly Fools)
เมื่อ 11 ปีที่แล้ว
ค้นพบคอร์ด 13 เวอร์ชั่น
น้ำลาย - ซิลลี่ ฟูลส์ (Silly Fools)
เมื่อ 15 ปีที่แล้ว
ค้นพบคอร์ด 49 เวอร์ชั่น
จิ๊จ๊ะ - ซิลลี่ ฟูลส์ (Silly Fools)
เมื่อ 13 ปีที่แล้ว
ค้นพบคอร์ด 13 เวอร์ชั่น
เมื่อรักฉันเกิด - ซิลลี่ ฟูลส์ (Silly Fools)
เมื่อ 15 ปีที่แล้ว
ค้นพบคอร์ด 12 เวอร์ชั่น
Intro,Solo คิดถึง - ซิลลี่ ฟูลส์ (Silly Fools)
เมื่อ 15 ปีที่แล้ว
ค้นพบคอร์ด 17 เวอร์ชั่น
เพียงรัก (ท่อนเร็ว) - ซิลลี่ ฟูลส์ (Silly Fools)
เมื่อ 15 ปีที่แล้ว
ค้นพบคอร์ด 16 เวอร์ชั่น
เพลงนี้เกี่ยวกับความรัก - ซิลลี่ ฟูลส์ (Silly Fools)
เมื่อ 13 ปีที่แล้ว
ค้นพบคอร์ด 12 เวอร์ชั่น
เบื่อ - ซิลลี่ ฟูลส์ (Silly Fools)
เมื่อ 15 ปีที่แล้ว
ค้นพบคอร์ด 7 เวอร์ชั่น
Hey - ซิลลี่ ฟูลส์ (Silly Fools)
เมื่อ 14 ปีที่แล้ว
ค้นพบคอร์ด 9 เวอร์ชั่น
ไม่ - ซิลลี่ ฟูลส์ (Silly Fools)
เมื่อ 13 ปีที่แล้ว
ค้นพบคอร์ด 9 เวอร์ชั่น
คนที่ฆ่าฉัน - ซิลลี่ ฟูลส์ (Silly Fools)
เมื่อ 18 ปีที่แล้ว
ค้นพบคอร์ด 10 เวอร์ชั่น
intro น้ำลาย - ซิลลี่ ฟูลส์ (Silly Fools)
เมื่อ 15 ปีที่แล้ว
ค้นพบคอร์ด 8 เวอร์ชั่น
บ้าบอ - ซิลลี่ ฟูลส์ (Silly Fools)
เมื่อ 13 ปีที่แล้ว
ค้นพบคอร์ด 17 เวอร์ชั่น
Stay Away - ซิลลี่ ฟูลส์ (Silly
เมื่อ 12 ปีที่แล้ว
ค้นพบคอร์ด 8 เวอร์ชั่น
แกล้ง - ซิลลี่ ฟูลส์ (Silly Fools)
เมื่อ 13 ปีที่แล้ว
ค้นพบคอร์ด 12 เวอร์ชั่น
อย่าบอกว่ารัก - ซิลลี่ ฟูลส์ (Silly Fools)
เมื่อ 12 ปีที่แล้ว
ค้นพบคอร์ด 8 เวอร์ชั่น
เหนื่อยแล้ว... - ซิลลี่ ฟูลส์
เมื่อ 11 ปีที่แล้ว
ค้นพบคอร์ด 3 เวอร์ชั่น