คอร์ดเพลง ปลุกใจเสือป่า - บิ๊กแอส (Big Ass)

Version 1
แกะโดย Mudtod [G S]
เมื่อ 17 ต.ค.2549,03:18น.
ดู 535 ครั้ง
ผมว่าเพลงนี้ดรอป C นะงับไม่เเน่จายเหมือนกันลองๆดูนะงับ

GUitar 1
intro :4 |-0---------7---------9---------6-----x--x---7-------4------6-------7---9-------
5|-0---------7---------9---------6-----x--x---7-------4------6-------7---9-------
6 |-0---------7---------9---------6-----x--x---7-------4------6-------7---9-------

guitar 2
1|-------9----6--pf-7--po6------6-------- [วนไปวนมากี่รอบไม่รุ]
2|-------------------------------8

----------------------------------------------------------------------------------------------------------
M M M M M M M M M M M M M MM
4|-0--0------7-0--5-0--4-0--7-0-5--0--4-s-5---2------0--0--7-0-5-0-4-0-7-0-5-0-0--[4]~-|
5|-0--0------7-0--5-0--4-0--7-0-5--0--4-s-5---2------0--0--7-0-5-0-4-0-7-0-5-0-0---------|
6|-0--0------7-0--5-0--4-0--7-0-5--0--4-s-5---2------0--0--7-0-5-0-4-0-7-0-5-0-0---------|
วนกี่รอบนับเอานะงับ

5|--7-6-7-9-7-6-pf-7-po-6-------9---7po6-----------11--8-pf-9-po-8---------------
6|-0-0-0-0-0-0--------------------7--7---7---------7--9--9-----------------------------
ท่อนนี้เล่นเร็วๆมั้ง
3|-----------------------------------------------------------------13-15-13-12-13-12-----------
4|------------------------------------------------------------------------------------------15
5|--7-6-7-9-7-6-pf-7-po-6-------9---7po6----------------------
6|-0-0-0-0-0-0--------------------7--7---7---------7--9-------------------------------

---------------------------------------------------------------------------------------------------------

4|--7-5-7-8-7-5-pf-7-po-5----7-5-7-5------7-5-7-8-7---------------------[วน2รอบมั้ง]
5|--------------------------------7-------------6-------------------------------------

--------------------------------------------------------------------------------------------------------

คนเราหกล้ม..
2|--------------------------------------12-----------------------------------------------12-------------
3|-9-9------------------11----------------9----------9--9-----------11---------------------9--------
4|--------11-11------------11-11----------11-11-------11-11--------11--11------------11-11

2|---------------------------------12--10--9--10-9---------------[12]------------------------
3|--9-9-----------11-----------------------------------11--13----------------------------
4|-------11-11--------11-11-------------------------------------------------------------
------------------------------------------------------------------------------------------------------------

4|-7-5-7-5-0---|ไม่รุว่าใช่หรือป่าวนะไม่ค่อยได้ยินน
5|-7-5-7-5-0---|
6|-7-5-7-5-0---|

ฆ่ามัน! ฆ่ามัน!
4|--0-4-s-2-s-4-0-|[วนกี่รอบนับเอา]
5|--0-4-s-2-s-4-0-|
6|--0-4-s-2-s-4-0-|
--------------------------------------------------------------------------
ดร็อป C มั้งนะงับ
ท่อนฮุค คอร์ด D เเล้วไรต่อมิรุง่ะ

------------------------------------------------------------------------
เเกะได้เเค่นี่ง่ะไม่รุว่าเหมือนหรือป่าวนะถ้าผิดก้อเเก้เอานะงับ(ใช้กีต้าโปร่งเเกะนะอาจจะไม่ค่อยเหมือนหรือไม่เหมือนเลยก้อได้)
By:muntod


คอร์ดเพลง ปลุกใจเสือป่า

ความคิดเห็นเกี่ยวกับคอร์ดนี้

เวอร์ชั่นทั้งหมดของคอร์ดเพลงนี้

คอร์ดเพลง ปลุกใจเสือป่า

1 | 1
โดย Tum_My_Story
เมื่อ 13 ปีที่แล้ว

คอร์ดเพลง ปลุกใจเสือป่า

0 | 0
โดย เบนซ์
เมื่อ 7 ปีที่แล้ว

คอร์ดเพลง ปลุกใจเสือป่า

0 | 0
โดย Tum_My_Story
เมื่อ 13 ปีที่แล้ว

คอร์ดเพลง ปลุกใจเสือป่า

0 | 0
โดย Tum_My_Story
เมื่อ 13 ปีที่แล้ว

คอร์ดเพลง ปลุกใจเสือป่า

0 | 0
โดย น็อต
เมื่อ 13 ปีที่แล้ว

คอร์ดเพลง ปลุกใจเสือป่า

0 | 0
โดย Jeff Emotion-Punker
เมื่อ 13 ปีที่แล้ว

คอร์ดเพลง ปลุกใจเสือป่า

0 | 0
โดย PopConE
เมื่อ 13 ปีที่แล้ว

คอร์ดเพลง ปลุกใจเสือป่า

0 | 0
โดย เต่า
เมื่อ 13 ปีที่แล้ว

คอร์ดเพลง ปลุกใจเสือป่า

0 | 0
โดย Bass ๐ [ S ] inK ๐
เมื่อ 14 ปีที่แล้ว

คอร์ดเพลง ปลุกใจเสือป่า

0 | 0
โดย Seclude
เมื่อ 14 ปีที่แล้ว

คอร์ดเพลง ปลุกใจเสือป่า

0 | 0
โดย -*-
เมื่อ 14 ปีที่แล้ว

คอร์ดเพลง ปลุกใจเสือป่า

0 | 0
โดย เต้ Shameless
เมื่อ 14 ปีที่แล้ว

คอร์ดเพลง ปลุกใจเสือป่า

0 | 0
โดย Jack
เมื่อ 14 ปีที่แล้ว

คอร์ดเพลง ปลุกใจเสือป่า

0 | 0
โดย มือกีต้าร์ Pensive เพ็นซิพว เเดนเจอรัท
เมื่อ 14 ปีที่แล้ว

คอร์ดเพลง ปลุกใจเสือป่า

0 | 0
โดย มือกีต้าร์ Pensive เพ็นซิพว เเดนเจอรัท
เมื่อ 14 ปีที่แล้ว

คอร์ดเพลง ปลุกใจเสือป่า

0 | 0
โดย ยางามิ ไลท์
เมื่อ 14 ปีที่แล้ว

คอร์ดเพลง ปลุกใจเสือป่า

0 | 0
โดย แม็ก
เมื่อ 14 ปีที่แล้ว

คอร์ดเพลง ปลุกใจเสือป่า

0 | 0
โดย atimetion
เมื่อ 14 ปีที่แล้ว

คอร์ดเพลง ปลุกใจเสือป่า

0 | 0
โดย Noise
เมื่อ 14 ปีที่แล้ว

คอร์ดเพลง ปลุกใจเสือป่า

0 | 0
โดย *-*
เมื่อ 14 ปีที่แล้ว

คอร์ดเพลง ปลุกใจเสือป่า

0 | 0
โดย เอี้ยมzaza
เมื่อ 14 ปีที่แล้ว

คอร์ดเพลง ปลุกใจเสือป่า

0 | 0
โดย เอี้ยม
เมื่อ 14 ปีที่แล้ว

คอร์ดเพลง ปลุกใจเสือป่า

0 | 0
โดย ฟุตบาท
เมื่อ 14 ปีที่แล้ว

คอร์ดเพลง ปลุกใจเสือป่า

0 | 0
โดย ฟุตบาท
เมื่อ 14 ปีที่แล้ว

คอร์ดเพลง ปลุกใจเสือป่า

0 | 0
โดย pedestriane
เมื่อ 14 ปีที่แล้ว

คอร์ดเพลง ปลุกใจเสือป่า

0 | 0
โดย un
เมื่อ 14 ปีที่แล้ว

คอร์ดเพลง ปลุกใจเสือป่า

0 | 0
โดย Mudtod [G S]
เมื่อ 14 ปีที่แล้ว

เนื้อเพลง ปลุกใจเสือป่า - บิ๊กแอส (Big Ass)


rtist : g

lbum : egins


Intro:

คนเราหกล้มเรื่องธรรมดา ไม่แปลกเลย

ไอคนเหยียบซ้ำให้จมลงดิน อย่างนั้นน่ะแปลกคน

เราเป็นแค่คนที่เคยผิดพลั้ง ก็เหมือนกันทุกคน

กลับต้องโดนเหยียบซ้ำจนเกือบตาย


* come on!! come on!!

ชีวิตมันมีไว้สู้..

come on!! come on!!

จะสู้จนขาดใจ..


**ถ้าหากชีวิตต้องพังทลาย ด้วยลมปากแค่นี้

ก็ให้มันรู้กันไป

จะหนักจะหนาเท่าไหร่จะทน ต้องผ่านต้องพ้นไป

ไม่เป็นไรเดี๋ยวก็รู้กัน


เราคือเจ้าของผู้ขีดชะตา กำหนดมัน

เป็นใครหน้าไหนก็ไม่มีวัน หากคิดจะทำลาย


ซ้ำ * **


Solo:


ถ้าหากชีวิตต้องพังทลาย ด้วยลมปากแค่นี้

ก็ให้มันรู้กันไป

จะหนักจะหนาเท่าไหร่จะทน ต้องผ่านต้องพ้นไป

ไม่เป็นไรเดี๋ยวก็รู้กัน


ซักวัน.. ซักวัน..



++++ ไอ่ท่อนนี้

* เสือป่า! เสือป่า! ผมได้ยินเป็น (ฆ่ามัน! ฆ่ามัน!) ไม่รู้จะได้ยินเหมือนกันป่ะ

ชีวิตมันมีไว้สู้..

เสือป่า! เสือป่า!

จะสู้จนขาดใจ..


สรุป come on come on จริงๆด้วยครับ ^^


แต่เพลงมันไม่น่าจะไปฆ่าใคร นะครับ ช่วยๆกันนะ...





Cover เพลงปลุกใจเสือป่า


ยังไม่มี Cover เพลงนี้

[ ช่วยกันแบ่งปันคลิปเพลงที่คุณเล่นเอง ]

ฟังเพลง ปลุกใจเสือป่า

ทุ้มอยู่ในใจ - บิ๊กแอส (Big Ass)
เมื่อ 10 ปีที่แล้ว
ยังไม่มีคอร์ด
พรหมลิขิต - บิ๊กแอส (Big Ass)
เมื่อ 14 ปีที่แล้ว
ค้นพบคอร์ด 82 เวอร์ชั่น
ลมเปลี่ยนทิศ - บิ๊กแอส (Big ass)
เมื่อ 8 ปีที่แล้ว
ค้นพบคอร์ด 4 เวอร์ชั่น
เล่นของสูง - บิ๊กแอส (Big Ass)
เมื่อ 16 ปีที่แล้ว
ค้นพบคอร์ด 40 เวอร์ชั่น
ทิ้งไว้ในใจ - บิ๊กแอส (Big Ass)
เมื่อ 18 ปีที่แล้ว
ค้นพบคอร์ด 22 เวอร์ชั่น
คนหลงทาง - บิ๊กแอส (Big Ass)
เมื่อ 14 ปีที่แล้ว
ค้นพบคอร์ด 84 เวอร์ชั่น
อย่างน้อย - บิ๊กแอส(ost.ปิดเทอมใหญ่ หัวใจว้าวุ่น)
เมื่อ 13 ปีที่แล้ว
ค้นพบคอร์ด 26 เวอร์ชั่น
ทางผ่าน - บิ๊กแอส (Big Ass)
เมื่อ 17 ปีที่แล้ว
ค้นพบคอร์ด 11 เวอร์ชั่น
ก่อนตาย - บิ๊กแอส (Big Ass)
เมื่อ 17 ปีที่แล้ว
ค้นพบคอร์ด 22 เวอร์ชั่น
เรา - บิ๊กแอส บอดี้สแลม
เมื่อ 15 ปีที่แล้ว
ค้นพบคอร์ด 23 เวอร์ชั่น
ข้าน้อยสมควรตาย - บิ๊กแอส (Big Ass)
เมื่อ 14 ปีที่แล้ว
ค้นพบคอร์ด 27 เวอร์ชั่น
หัวใจ - บิ๊กแอส (Big Ass)
เมื่อ 12 ปีที่แล้ว
ค้นพบคอร์ด 2 เวอร์ชั่น
ส่งท้ายคนเก่าต้อนรับคนใหม่ - บิ๊กแอส (Big Ass)
เมื่อ 12 ปีที่แล้ว
ยังไม่มีคอร์ด
สิ่งกีดขวาง - บิ๊กแอส (Big Ass)
เมื่อ 14 ปีที่แล้ว
ค้นพบคอร์ด 27 เวอร์ชั่น
พรมลิขิต - บิ๊กแอส
เมื่อ 14 ปีที่แล้ว
ค้นพบคอร์ด 25 เวอร์ชั่น
น้ำตา(Big Ass) - บิ๊กแอส (Big Ass)
เมื่อ 16 ปีที่แล้ว
ค้นพบคอร์ด 9 เวอร์ชั่น
บันทึกหน้าสุดท้าย - บิ๊กแอส (Big Ass)
เมื่อ 11 ปีที่แล้ว
ยังไม่มีคอร์ด
ฝุ่น - บิ๊กแอส (big Ass)
เมื่อ 11 ปีที่แล้ว
ค้นพบคอร์ด 7 เวอร์ชั่น
ดีแต่ปาก - บิ๊กแอส (Big Ass)
เมื่อ 16 ปีที่แล้ว
ค้นพบคอร์ด 22 เวอร์ชั่น
เหตุผลง่ายๆ - บิ๊กแอส (BigAss)
เมื่อ 18 ปีที่แล้ว
ค้นพบคอร์ด 7 เวอร์ชั่น