คอร์ดเพลง ปลุกใจเสือป่า - บิ๊กแอส (Big Ass)

Version 15
แกะโดย Jack
เมื่อ 9 ม.ค.2550,21:53น.
ดู 409 ครั้ง
4::/---0---8---12---7---77x-7x--8---7---10--10---12-----
5::/---0---8---10---7---77x-7x--8---5---7----8----10----- Guitar1
6::/---0---8---10---7---77x-7x--8---5---7----8----10-----
2::/---5--p--2--h--3--p--2--p--0--h--2----------- ( x30 )
2::/---5--p--2--h--3--p--2--p--0--h--2--s--22 --
4::/---x--x--8--x-7--x-5--8--x-7--x-x---5s7---3--
5::/---x--x--8--x-7--x-5--8--x-7--x-x---5s7---3-- Guitar1/2
6::/---x--x--8--x-7--x-5--8--x-7--x-x---5s7---3--
4::/---x--x--8--x-7--x-5--8--x-7--x-x--------
5::/---x--x--8--x-7--x-5--8--x-7--x-x-----[7]-- Guitar1/2
6::/---x--x--8--x-7--x-5--8--x-7--x-x-----------
4::/---x--x--8--x-7--x-5--8--x-7--x-x---5s7---3--
5::/---x--x--8--x-7--x-5--8--x-7--x-x---5s7---3-- Guitar1/2
6::/---x--x--8--x-7--x-5--8--x-7--x-x---5s7---3--

4::/---x--x--8--x-7--x-10--8--x-7--------------
5::/---x--x--8--x-7--x-10--8--x-7-------------- Guitar1/2
6::/---x--x--8--x-7--x-10--8--x-7------[7~]----
5::/-----8----7----8-----10-----8------7h8p7-----------10---8p7--------------------12---10p8---7------ Guitar1
6::/--0----0----0-----0------0------0-----------8----8---------------8---10---10----------------------0---

5::/------8----7----8----10-----8------7h8p7------------10----8p7-------------10h12p10---8h10p8----7----5
6::/--0----0----0-----0------0------0-----------8-----8----------------8----10-------------------------------------

5::/--13h15p13---12h13p12----10----8--- Guitar2
5::/-----8----7----8-----10-----8------7h8p7-----------10---8p7--------------------12---10p8---7------ Guitar1
6::/--0----0----0-----0------0------0-----------8----8---------------8---10---10----------------------0---
5::/---12----10----12----13----12----10h12p10----8----12----10h12p10----7- ----12-----10h12s10---
5::/------8-----7-----8------10-----8------7h8p7--------------10----8p7---------------- Guitar1
6::/--0-----0-----0------0-------0------0-------------8-----8----------------8----10-----

5::/----12----10----12----13----12----10h12p10----8----12----10h12p10-----7---- Guitar2
คอร์ดเพลง ปลุกใจเสือป่า

ความคิดเห็นเกี่ยวกับคอร์ดนี้

เวอร์ชั่นทั้งหมดของคอร์ดเพลงนี้

คอร์ดเพลง ปลุกใจเสือป่า

1 | 1
โดย Tum_My_Story
เมื่อ 13 ปีที่แล้ว

คอร์ดเพลง ปลุกใจเสือป่า

0 | 0
โดย เบนซ์
เมื่อ 7 ปีที่แล้ว

คอร์ดเพลง ปลุกใจเสือป่า

0 | 0
โดย Tum_My_Story
เมื่อ 13 ปีที่แล้ว

คอร์ดเพลง ปลุกใจเสือป่า

0 | 0
โดย Tum_My_Story
เมื่อ 13 ปีที่แล้ว

คอร์ดเพลง ปลุกใจเสือป่า

0 | 0
โดย น็อต
เมื่อ 13 ปีที่แล้ว

คอร์ดเพลง ปลุกใจเสือป่า

0 | 0
โดย Jeff Emotion-Punker
เมื่อ 13 ปีที่แล้ว

คอร์ดเพลง ปลุกใจเสือป่า

0 | 0
โดย PopConE
เมื่อ 13 ปีที่แล้ว

คอร์ดเพลง ปลุกใจเสือป่า

0 | 0
โดย เต่า
เมื่อ 13 ปีที่แล้ว

คอร์ดเพลง ปลุกใจเสือป่า

0 | 0
โดย Bass ๐ [ S ] inK ๐
เมื่อ 14 ปีที่แล้ว

คอร์ดเพลง ปลุกใจเสือป่า

0 | 0
โดย Seclude
เมื่อ 14 ปีที่แล้ว

คอร์ดเพลง ปลุกใจเสือป่า

0 | 0
โดย -*-
เมื่อ 14 ปีที่แล้ว

คอร์ดเพลง ปลุกใจเสือป่า

0 | 0
โดย เต้ Shameless
เมื่อ 14 ปีที่แล้ว

คอร์ดเพลง ปลุกใจเสือป่า

0 | 0
โดย Jack
เมื่อ 14 ปีที่แล้ว

คอร์ดเพลง ปลุกใจเสือป่า

0 | 0
โดย มือกีต้าร์ Pensive เพ็นซิพว เเดนเจอรัท
เมื่อ 14 ปีที่แล้ว

คอร์ดเพลง ปลุกใจเสือป่า

0 | 0
โดย มือกีต้าร์ Pensive เพ็นซิพว เเดนเจอรัท
เมื่อ 14 ปีที่แล้ว

คอร์ดเพลง ปลุกใจเสือป่า

0 | 0
โดย ยางามิ ไลท์
เมื่อ 14 ปีที่แล้ว

คอร์ดเพลง ปลุกใจเสือป่า

0 | 0
โดย แม็ก
เมื่อ 14 ปีที่แล้ว

คอร์ดเพลง ปลุกใจเสือป่า

0 | 0
โดย atimetion
เมื่อ 14 ปีที่แล้ว

คอร์ดเพลง ปลุกใจเสือป่า

0 | 0
โดย Noise
เมื่อ 14 ปีที่แล้ว

คอร์ดเพลง ปลุกใจเสือป่า

0 | 0
โดย *-*
เมื่อ 14 ปีที่แล้ว

คอร์ดเพลง ปลุกใจเสือป่า

0 | 0
โดย เอี้ยมzaza
เมื่อ 14 ปีที่แล้ว

คอร์ดเพลง ปลุกใจเสือป่า

0 | 0
โดย เอี้ยม
เมื่อ 14 ปีที่แล้ว

คอร์ดเพลง ปลุกใจเสือป่า

0 | 0
โดย ฟุตบาท
เมื่อ 14 ปีที่แล้ว

คอร์ดเพลง ปลุกใจเสือป่า

0 | 0
โดย ฟุตบาท
เมื่อ 14 ปีที่แล้ว

คอร์ดเพลง ปลุกใจเสือป่า

0 | 0
โดย pedestriane
เมื่อ 14 ปีที่แล้ว

คอร์ดเพลง ปลุกใจเสือป่า

0 | 0
โดย un
เมื่อ 14 ปีที่แล้ว

คอร์ดเพลง ปลุกใจเสือป่า

0 | 0
โดย Mudtod [G S]
เมื่อ 14 ปีที่แล้ว

เนื้อเพลง ปลุกใจเสือป่า - บิ๊กแอส (Big Ass)


rtist : g

lbum : egins


Intro:

คนเราหกล้มเรื่องธรรมดา ไม่แปลกเลย

ไอคนเหยียบซ้ำให้จมลงดิน อย่างนั้นน่ะแปลกคน

เราเป็นแค่คนที่เคยผิดพลั้ง ก็เหมือนกันทุกคน

กลับต้องโดนเหยียบซ้ำจนเกือบตาย


* come on!! come on!!

ชีวิตมันมีไว้สู้..

come on!! come on!!

จะสู้จนขาดใจ..


**ถ้าหากชีวิตต้องพังทลาย ด้วยลมปากแค่นี้

ก็ให้มันรู้กันไป

จะหนักจะหนาเท่าไหร่จะทน ต้องผ่านต้องพ้นไป

ไม่เป็นไรเดี๋ยวก็รู้กัน


เราคือเจ้าของผู้ขีดชะตา กำหนดมัน

เป็นใครหน้าไหนก็ไม่มีวัน หากคิดจะทำลาย


ซ้ำ * **


Solo:


ถ้าหากชีวิตต้องพังทลาย ด้วยลมปากแค่นี้

ก็ให้มันรู้กันไป

จะหนักจะหนาเท่าไหร่จะทน ต้องผ่านต้องพ้นไป

ไม่เป็นไรเดี๋ยวก็รู้กัน


ซักวัน.. ซักวัน..



++++ ไอ่ท่อนนี้

* เสือป่า! เสือป่า! ผมได้ยินเป็น (ฆ่ามัน! ฆ่ามัน!) ไม่รู้จะได้ยินเหมือนกันป่ะ

ชีวิตมันมีไว้สู้..

เสือป่า! เสือป่า!

จะสู้จนขาดใจ..


สรุป come on come on จริงๆด้วยครับ ^^


แต่เพลงมันไม่น่าจะไปฆ่าใคร นะครับ ช่วยๆกันนะ...





Cover เพลงปลุกใจเสือป่า


ยังไม่มี Cover เพลงนี้

[ ช่วยกันแบ่งปันคลิปเพลงที่คุณเล่นเอง ]

ฟังเพลง ปลุกใจเสือป่า

ทุ้มอยู่ในใจ - บิ๊กแอส (Big Ass)
เมื่อ 10 ปีที่แล้ว
ยังไม่มีคอร์ด
พรหมลิขิต - บิ๊กแอส (Big Ass)
เมื่อ 14 ปีที่แล้ว
ค้นพบคอร์ด 82 เวอร์ชั่น
ลมเปลี่ยนทิศ - บิ๊กแอส (Big ass)
เมื่อ 8 ปีที่แล้ว
ค้นพบคอร์ด 4 เวอร์ชั่น
เล่นของสูง - บิ๊กแอส (Big Ass)
เมื่อ 16 ปีที่แล้ว
ค้นพบคอร์ด 40 เวอร์ชั่น
ทิ้งไว้ในใจ - บิ๊กแอส (Big Ass)
เมื่อ 18 ปีที่แล้ว
ค้นพบคอร์ด 22 เวอร์ชั่น
คนหลงทาง - บิ๊กแอส (Big Ass)
เมื่อ 14 ปีที่แล้ว
ค้นพบคอร์ด 84 เวอร์ชั่น
อย่างน้อย - บิ๊กแอส(ost.ปิดเทอมใหญ่ หัวใจว้าวุ่น)
เมื่อ 13 ปีที่แล้ว
ค้นพบคอร์ด 26 เวอร์ชั่น
ทางผ่าน - บิ๊กแอส (Big Ass)
เมื่อ 17 ปีที่แล้ว
ค้นพบคอร์ด 11 เวอร์ชั่น
ก่อนตาย - บิ๊กแอส (Big Ass)
เมื่อ 17 ปีที่แล้ว
ค้นพบคอร์ด 22 เวอร์ชั่น
เรา - บิ๊กแอส บอดี้สแลม
เมื่อ 15 ปีที่แล้ว
ค้นพบคอร์ด 23 เวอร์ชั่น
ข้าน้อยสมควรตาย - บิ๊กแอส (Big Ass)
เมื่อ 14 ปีที่แล้ว
ค้นพบคอร์ด 27 เวอร์ชั่น
หัวใจ - บิ๊กแอส (Big Ass)
เมื่อ 12 ปีที่แล้ว
ค้นพบคอร์ด 2 เวอร์ชั่น
ส่งท้ายคนเก่าต้อนรับคนใหม่ - บิ๊กแอส (Big Ass)
เมื่อ 12 ปีที่แล้ว
ยังไม่มีคอร์ด
สิ่งกีดขวาง - บิ๊กแอส (Big Ass)
เมื่อ 14 ปีที่แล้ว
ค้นพบคอร์ด 27 เวอร์ชั่น
พรมลิขิต - บิ๊กแอส
เมื่อ 14 ปีที่แล้ว
ค้นพบคอร์ด 25 เวอร์ชั่น
น้ำตา(Big Ass) - บิ๊กแอส (Big Ass)
เมื่อ 16 ปีที่แล้ว
ค้นพบคอร์ด 9 เวอร์ชั่น
บันทึกหน้าสุดท้าย - บิ๊กแอส (Big Ass)
เมื่อ 11 ปีที่แล้ว
ยังไม่มีคอร์ด
ฝุ่น - บิ๊กแอส (big Ass)
เมื่อ 11 ปีที่แล้ว
ค้นพบคอร์ด 7 เวอร์ชั่น
ดีแต่ปาก - บิ๊กแอส (Big Ass)
เมื่อ 16 ปีที่แล้ว
ค้นพบคอร์ด 22 เวอร์ชั่น
เหตุผลง่ายๆ - บิ๊กแอส (BigAss)
เมื่อ 18 ปีที่แล้ว
ค้นพบคอร์ด 7 เวอร์ชั่น