คอร์ดเพลง ปิดตา - กะลา

Version 5
แกะโดย 11
เมื่อ 13 ส.ค.2548,10:53น.
ดู 494 ครั้ง
Solo 

e-------------------------------------------------------------------------------------------------------------
B---15^----15^-15^-15^-15^-15^--15-12-15-12---13-13-13-12----------------------------
G--------------------------------------------------------------------------------12--9--12-----------------
D-------------------------------------------------------------------------------------------------------------
A-------------------------------------------------------------------------------------------------------------
E-------------------------------------------------------------------------------------------------------------

e-------------------------------------------------------------------------------------------------------------
B---15--15--15--12----------------17-1715h1713h15---12h13---10h12-----------------
G------------------------12--9--12------------------------------------------------------------------
D----------------------------------------------------------------------------------------------------------
A-------------------------------------------------------------------------------------------------------------
E-------------------------------------------------------------------------------------------------------------

E--------------------------10---12/19---15--------------------------------------------------------------
B---------------10--12--------------------------------------------------------------------------------------
G---------12-------------------------------------------------------------------------------------------------
D--------------------------------------------------------------------------------------------------------------
A--------------------------------------------------------------------------------------------------------------
E--------------------------------------------------------------------------------------------------------------

คอร์ดเพลง ปิดตา

ความคิดเห็นเกี่ยวกับคอร์ดนี้

เวอร์ชั่นทั้งหมดของคอร์ดเพลงนี้

เนื้อเพลง ปิดตา - กะลา

Intro:

ไม่มีลางร้ายๆใดๆ ให้ฉันได้ตั้งตัว ไม่มีเวลาให้เตรียมตัวเตรียมหัวใจ

ยังรับไม่ทันวันนี้ที่เจอรุนแรงไป เกินกว่าหัวใจจะยอมรับมัน

* ได้มาพบมาเจอได้เห็นจังจังด้วยสองตา ใจมันชามันล้าไปหมดทั้งใจ

เขายืนอยู่ตรงนั้นที่เคยเป็นฉันเคียงข้างกาย วันนี้เปลี่ยนไปไม่อาจฝืนใจให้ยอมรับ

** ปิดตาเอาไว้หลับตาลงก็คงได้เจอ มันฝืนเห็นเขาและเธอใกล้กันทนไม่ไหว

หลับตาช้าๆปล่อยน้ำตาให้มันไหล หันหลังให้ความเป็นจริงที่เจ็บปวดใจ

หลับตาเอาไว้คงบรรเทา

solo แกะกันเอาเองนะ เพราะว่าเรามะรุเจงๆ ได้ฟังในวิทยุอ้ะ!! ได้แค่นี้แหละ

Cover เพลงปิดตา


ยังไม่มี Cover เพลงนี้

[ ช่วยกันแบ่งปันคลิปเพลงที่คุณเล่นเอง ]

ฟังเพลง ปิดตา

ไม่เห็นฝุ่น - กะลา (KALA)
เมื่อ 9 ปีที่แล้ว
ค้นพบคอร์ด 3 เวอร์ชั่น
เธอเป็นแฟนฉันแล้ว - กะลา
เมื่อ 16 ปีที่แล้ว
ค้นพบคอร์ด 16 เวอร์ชั่น
ใจเรายังตรงกันอยู่ไหม - กะลา (Kala)
เมื่อ 7 ปีที่แล้ว
ค้นพบคอร์ด 4 เวอร์ชั่น
ขอเป็นตัวเลือก - กะลา
เมื่อ 15 ปีที่แล้ว
ค้นพบคอร์ด 9 เวอร์ชั่น
บอกสักคำ - กะลา
เมื่อ 16 ปีที่แล้ว
ค้นพบคอร์ด 15 เวอร์ชั่น
ถ้าเธอหลายใจ - กะลา
เมื่อ 14 ปีที่แล้ว
ค้นพบคอร์ด 10 เวอร์ชั่น
รอ - กะลา
เมื่อ 15 ปีที่แล้ว
ค้นพบคอร์ด 12 เวอร์ชั่น
เป็นแฟนกันตั้งแต่เมื่อไหร่ - กะลา
เมื่อ 12 ปีที่แล้ว
ค้นพบคอร์ด 7 เวอร์ชั่น
ทำใจให้ชิน - กะลา (Kala)
เมื่อ 9 ปีที่แล้ว
ค้นพบคอร์ด 1 เวอร์ชั่น
หยุด - กะลา (KALA)
เมื่อ 9 ปีที่แล้ว
ยังไม่มีคอร์ด
กะลา (ใช่ไหม) - กะลา KALA
เมื่อ 12 ปีที่แล้ว
ค้นพบคอร์ด 13 เวอร์ชั่น
ใช่ฉันหรือปล่าว - กะลา
เมื่อ 13 ปีที่แล้ว
ค้นพบคอร์ด 13 เวอร์ชั่น
เจ็บนี้มันลึก - กะลา
เมื่อ 14 ปีที่แล้ว
ค้นพบคอร์ด 16 เวอร์ชั่น
ปิดตา - กะลา
เมื่อ 14 ปีที่แล้ว
ค้นพบคอร์ด 11 เวอร์ชั่น
ใช่ฉันหรือเปล่า - กะลา
เมื่อ 13 ปีที่แล้ว
ค้นพบคอร์ด 32 เวอร์ชั่น
4 นาที - กะลา
เมื่อ 11 ปีที่แล้ว
ค้นพบคอร์ด 18 เวอร์ชั่น
นาฬิกาของคนรักกัน - กะลา (KALA)
เมื่อ 7 ปีที่แล้ว
ค้นพบคอร์ด 2 เวอร์ชั่น
ขอแค่ได้ฝัน - กะลา
เมื่อ 12 ปีที่แล้ว
ค้นพบคอร์ด 4 เวอร์ชั่น
ไม่มีทาง - กะลา
เมื่อ 14 ปีที่แล้ว
ค้นพบคอร์ด 7 เวอร์ชั่น
คนดีที่เย็นชา - กะลา (Kala)
เมื่อ 11 ปีที่แล้ว
ค้นพบคอร์ด 4 เวอร์ชั่น