คอร์ดเพลง ผีโรงเย็น - พงษ์สิทธิ์ คำภีร์

Version 2
แกะโดย กีต้าร์ปลิว
เมื่อ 18 มิ.ย.2547,10:13น.
ดู 10186 ครั้ง
intro
C Em Am
1--------------------0-------------------------------------------------------------------
2----------------------1------------------0----------1----------------------------------
3------------------------0-----------0--------------------------------------------------
4-----0-2-3-2-0-2--------------2--------------------------0---2--3--2--0--------
5--3-----------------------2------------------0---------3--------------------------
6-----------------------------------------------------------------------

C Em Am
1--------0-----------------------------------------------------------------------
2------------1------------------------0-------------1-----------------------------
3---------------0----------------0----------------------------------------------
4---------------------------2------------------------------------0-2-3-2-0-------
5--3------------------2--------------------0--------------3------------------
6--------------------------------------------------------------------
F G C
1----------------1----------------------------------------------------0-------0-------
2---------1---------1-----1-------------------------------------1-------3------3----1
3-----2------2----------2--------------0-0---0-0h-2-0-----------0-------0----------
4-3----------------------------------0------2------------------------------------------
5--------------------------------------------------------------3----------------------3
6--------------------------------3-----------------------------------------------------
((อัพเดทคอร์ดกีต้าร์))
คอร์ดเพลง ผีโรงเย็น

ความคิดเห็นเกี่ยวกับคอร์ดนี้

เวอร์ชั่นทั้งหมดของคอร์ดเพลงนี้

คอร์ดเพลง ผีโรงเย็น

156 | 36
โดย กีต้าร์ปลิว
เมื่อ 17 ปีที่แล้ว

คอร์ดเพลง ผีโรงเย็น

6 | 0
โดย กีต้าร์ปลิว
เมื่อ 17 ปีที่แล้ว

คอร์ดเพลง ผีโรงเย็น

0 | 0
โดย Ing Ing Ame
เมื่อ 2 เดือนที่แล้ว

คอร์ดเพลง ผีโรงเย็น

0 | 0
โดย BaNk
เมื่อ 5 ปีที่แล้ว

คอร์ดเพลง ผีโรงเย็น

0 | 0
โดย kongkang
เมื่อ 7 ปีที่แล้ว

คอร์ดเพลง ผีโรงเย็น

0 | 0
โดย กอล์ฟ
เมื่อ 13 ปีที่แล้ว

คอร์ดเพลง ผีโรงเย็น

0 | 0
โดย กาย
เมื่อ 13 ปีที่แล้ว

คอร์ดเพลง ผีโรงเย็น

0 | 0
โดย แบงค์
เมื่อ 13 ปีที่แล้ว

คอร์ดเพลง ผีโรงเย็น

0 | 0
โดย 555
เมื่อ 14 ปีที่แล้ว

คอร์ดเพลง ผีโรงเย็น

0 | 0
โดย มาร์คจอหอ
เมื่อ 14 ปีที่แล้ว

คอร์ดเพลง ผีโรงเย็น

0 | 0
โดย 191
เมื่อ 14 ปีที่แล้ว

คอร์ดเพลง ผีโรงเย็น

0 | 0
โดย มาร์คจอหอ
เมื่อ 14 ปีที่แล้ว

คอร์ดเพลง ผีโรงเย็น

0 | 0
โดย มาร์คจอหอ
เมื่อ 14 ปีที่แล้ว

คอร์ดเพลง ผีโรงเย็น

0 | 0
โดย miti
เมื่อ 16 ปีที่แล้ว

เนื้อเพลง ผีโรงเย็น - พงษ์สิทธิ์ คำภีร์

Intro:

อยู่โรงบาลนั้นแสนยากเข็ญ ไม่มีใครเห็นใจพวกเรา

อยู่อย่างคนที่ไร้ญาติขาดมิตร เราเลยไม่คิดจะรักใคร

ด้วยไม่มีใครเข้าใจเรา ชอบมองเราในแง่ไม่ดี

ชอบเหยียดหยามพวกเรายิ่งนัก เศร้าใจสิ้นดี

หลงรักสาวซักคน(หลงรักสาวสักคน)

เขาไม่สนใจเรา(เขาไม่สนใจเรา)

ชีวิตจำต้องเศร้า เพราะเราเป็นผีโรง

เย็น Solo:
(ซ้ำ*)

(ผีโรงเย็น)ผีโรงเย็น(ผีโรงเย็น)ผีโรงเย็น(ผีโรงเย็น)ผีโรง..เย็น

Cover เพลงผีโรงเย็น


ยังไม่มี Cover เพลงนี้

[ ช่วยกันแบ่งปันคลิปเพลงที่คุณเล่นเอง ]

ฟังเพลง ผีโรงเย็น

มือปืน - พงษ์สิทธิ์ คำภีร์
เมื่อ 15 ปีที่แล้ว
ค้นพบคอร์ด 11 เวอร์ชั่น
อยู่ตรงนี้ - พงษ์สิทธิ์ คำภีร์
เมื่อ 13 ปีที่แล้ว
ค้นพบคอร์ด 7 เวอร์ชั่น
สุดใจ - พงษ์สิทธิ์ คำภีร์
เมื่อ 12 ปีที่แล้ว
ค้นพบคอร์ด 1 เวอร์ชั่น
แค่นั้น - พงษ์สิทธิ์ คำภีร์
เมื่อ 15 ปีที่แล้ว
ค้นพบคอร์ด 15 เวอร์ชั่น
แม่ - พงษ์สิทธิ์ คำภีร์
เมื่อ 14 ปีที่แล้ว
ค้นพบคอร์ด 12 เวอร์ชั่น
ตลอดเวลา - พงษ์สิทธิ์ คำภีร์
เมื่อ 17 ปีที่แล้ว
ค้นพบคอร์ด 16 เวอร์ชั่น
หนุ่มน้อย - พงษ์สิทธิ์ คำภีร์
เมื่อ 15 ปีที่แล้ว
ค้นพบคอร์ด 5 เวอร์ชั่น
เสมอ - ปู พงษ์สิทธิ์ คำภีร์
เมื่อ 11 ปีที่แล้ว
ค้นพบคอร์ด 6 เวอร์ชั่น
ไถ่เธอคืนมา - พงษ์สิทธิ์ คำภีร์
เมื่อ 17 ปีที่แล้ว
ค้นพบคอร์ด 11 เวอร์ชั่น
ผีโรงเย็น - พงษ์สิทธิ์ คำภีร์
เมื่อ 17 ปีที่แล้ว
ค้นพบคอร์ด 16 เวอร์ชั่น
โรงเรียนของหนู - พงษ์สิทธิ์ คำภีร์
เมื่อ 17 ปีที่แล้ว
ค้นพบคอร์ด 12 เวอร์ชั่น
ถามยาย - พงษ์สิทธิ์ คำภีร์
เมื่อ 13 ปีที่แล้ว
ค้นพบคอร์ด 4 เวอร์ชั่น
ใจบงการ - พงษ์สิทธิ์ คำภีร์
เมื่อ 12 ปีที่แล้ว
ค้นพบคอร์ด 4 เวอร์ชั่น
คิดถึง - พงษ์สิทธิ์ คำภีร์
เมื่อ 16 ปีที่แล้ว
ค้นพบคอร์ด 20 เวอร์ชั่น
โยโกฮาม่า - พงษ์สิทธิ์ คำภีร์
เมื่อ 13 ปีที่แล้ว
ค้นพบคอร์ด 3 เวอร์ชั่น
ทุกลมหายใจ - พงษ์สิทธิ์ คำภีร์
เมื่อ 15 ปีที่แล้ว
ค้นพบคอร์ด 3 เวอร์ชั่น
เรียนและงาน - ปู พงษ์สิทธิ์
เมื่อ 11 ปีที่แล้ว
ค้นพบคอร์ด 5 เวอร์ชั่น
ถึงเพื่อน - พงษ์สิทธิ์ คำภีร์
เมื่อ 16 ปีที่แล้ว
ค้นพบคอร์ด 6 เวอร์ชั่น
เสือ11ตัว - พงษ์สิทธิ์ คำภีร์
เมื่อ 10 ปีที่แล้ว
ค้นพบคอร์ด 3 เวอร์ชั่น
ม.ให้อะไร - พงษ์สิทธิ์ คำภีร์
เมื่อ 13 ปีที่แล้ว
ค้นพบคอร์ด 2 เวอร์ชั่น