คอร์ดเพลง ผีโรงเย็น - พงษ์สิทธิ์ คำภีร์

Version 3
แกะโดย miti
เมื่อ 15 ก.ค.2547,21:32น.
ดู 1288 ครั้ง
ผมคนหนองคาย นะครับ บ้านเดียวกันกับพี่ปู ให้ไว้ความรู้ประดับชีวิตนะครับ


C Em Am
----------------------------l-------0----------------------------------------------------------------------
----------------------------I-----------1-----------------0---------1-------------------------------------
----------------------------l%------------0---------0------------------------------------------------%-
-------0--2--3---2-0----l%--------------------2-------------------------0----2---3---2----0---%-
---3-----------------------l--3---------------2--------------0-------3----------------------------------
----------------------------l-------------------------------------------------------------------------------

F G C C
------------------1-------------------------------------------------------------0-------------0---------------
---------1-----------1------1----------------------------------------1--------------3------------3------1--
------2-----2-----------2--------------0--0-------0-0h2-0------------0------------0-------------------- หยุดวิ1
---3---------------------------------0-----------2------------------------------------------------------------
--------------------------------------------------------------------3---------------------------------------3--
----------------------------------3----------------------------------------------------------------------------

C Em Am C Em
อยู่โรงบาลนั้นแสนอยากเข็ญ ไม่มีใครเห็นใจพวกเรา
เรา ชอบมองเราในแง่ไม่ดี
---------------------------------------------0------------0--------------0-----------0-------------0------------0-----
-------------------------------------------------1-----------0----1----------1----------1-------------1------------0-
-----------------------------------%----0------------0-------------2-----------2--------------0-----------0---------
-----------------------------------%------------------------------------------------------------------------------------
---------------------------------------3------------2-----------0-----------------------------3----------2------------
--------------------------------------------------------------------------------------------------------------------------

อยู่อย่างคนที่ไร้ญาติขาด มิตร เราเลยไม่คิดจะรัก ใคร ด้วยไม่มีใครเข้าใจ
ชอบเหยียดหยามพวกเรายิ่ง นัก เศร้าใจสิ้น ดี

Am F G C G C
---------0---------0----------------------1--------------------3-------3--------------0---------3l----------0----------0--
--1--------1-----------1-------1----1------1----1-----0--------0------0------1---------0-----l----1--------1---------1
------2--------2-------------------2------------2----------0--------0--------------2---------0--l--------0---------0-----%
-------------------------------3---------------------------------------------------------------------l-------------------------%
0--------------------------------------------------------------------------------3------------------l-3----------------------
--------------------------------------------------------3-----------------------------------3-------l--------------------------

หลงรักสาวสักคน (หลงรักสาวสักคน) เขาไม่สนใจเรา (ไม่สนใจเรา)

lC7 F G C Em
l----0---------0 ------------------------------1-------------------------3-----------3-----------0------------0-------
l--------1---------1------1--%----1------------1-----1--------0--------0-----------0-----------1------------0----
l-----------3----------3------%-------2------------2---------------0---------0-------------0-----------0-----------
l------------------------------%--3-------3-----------------------------------------------------------------------------
l--3-----------------------------------------------------------------------------------------3------------2--------------
----------------------------------------------------------------3---------------------------------------------------------

ชีวิตจำต้องเศร้า เพราะเราเป็นผีโรงเย็น

Am Dm G (X) C
----------0--------0----------1--0-1--------------------3----------3-----------------0------------3---------------
---1---------1-------1----------------3----3-----0----------0-----------0------1----------0----------------------
-------2--------2----------2-------------2-----------0----------0------------------2----------0--------------------
--------------------------0----------------------------------------------------------------------------------------------solo
-0-------------------------------------------------------------------------------3--------------------------3---หยุด-
-------------------------------------------------3-------------------------------------------3-------------------------
C Em Am C Em Am
SOLO
-------0--------------0------------0----------------0--------------------------0--------------0---------------0----------0-
-1--------1--------------1-------------0-----1--------1-----1h3---1------------1-------------0-----1--------3-----1--
-----0--------------0----------0-----------------2-------2------------------0-------------0----------------2-------2------
---------------------------------------------------------------------------------------------------------------------------------
------------------3----------2-------------0------------------------------3-----------2--------------0----------------------
---------------------------------------------------------------------------------------------------------------------------------

หลงรักสาวสัก
F G C G C7
----------1-------1--------3---------3---------------------0-----------3------0----------0------------
----1-------1------1----------0---------0----0-----1-----------0----------------1----------1------1-
-------2-------2-----------------0----------0-----------2-----------0-----------------3---------3-----%กลับไปเล่น
--3--------------------------------------------------------------------------------------------------------%ตรง%นะ
----------------------------------------------------3--------------------------3--------------------------
------------------------3-----------------------------------------3---------------------------------------

(X)
เย็น( ผีโรงเย็น) ผีโรงเย็น( ผีโรงเย็น) รัก มิ ติ ( ผีโรงเย็น) รัก มิ ติ

C G C G C G C ช้าๆ C
--------------0-------------3---------------0------------3----------------0-----------3------------0-------0-
-------1------------0--------------1-------------0----------------1------------0----------------------1----1-
----------2------------0----------------2-----------0-----------------2------------0----------0------------0-ดีดลง
----------------------------------------------------------------------------------------------------------------2-พร้อมกัน
--3----------------------------3-------------------------------3----------------------------3----------------3-ช้าๆ
----------------3------------------------------3------------------------------3-------------------------------0-


เฮ้อ ขอให้มีความสุข เล่นที่ใดนึกถึงมิติ บ้างนะ



((อัพเดทคอร์ดกีต้าร์))
คอร์ดเพลง ผีโรงเย็น

ความคิดเห็นเกี่ยวกับคอร์ดนี้

เวอร์ชั่นทั้งหมดของคอร์ดเพลงนี้

คอร์ดเพลง ผีโรงเย็น

156 | 36
โดย กีต้าร์ปลิว
เมื่อ 17 ปีที่แล้ว

คอร์ดเพลง ผีโรงเย็น

6 | 0
โดย กีต้าร์ปลิว
เมื่อ 17 ปีที่แล้ว

คอร์ดเพลง ผีโรงเย็น

0 | 0
โดย Ing Ing Ame
เมื่อ 2 เดือนที่แล้ว

คอร์ดเพลง ผีโรงเย็น

0 | 0
โดย BaNk
เมื่อ 5 ปีที่แล้ว

คอร์ดเพลง ผีโรงเย็น

0 | 0
โดย kongkang
เมื่อ 7 ปีที่แล้ว

คอร์ดเพลง ผีโรงเย็น

0 | 0
โดย กอล์ฟ
เมื่อ 13 ปีที่แล้ว

คอร์ดเพลง ผีโรงเย็น

0 | 0
โดย กาย
เมื่อ 13 ปีที่แล้ว

คอร์ดเพลง ผีโรงเย็น

0 | 0
โดย แบงค์
เมื่อ 13 ปีที่แล้ว

คอร์ดเพลง ผีโรงเย็น

0 | 0
โดย 555
เมื่อ 14 ปีที่แล้ว

คอร์ดเพลง ผีโรงเย็น

0 | 0
โดย มาร์คจอหอ
เมื่อ 14 ปีที่แล้ว

คอร์ดเพลง ผีโรงเย็น

0 | 0
โดย 191
เมื่อ 14 ปีที่แล้ว

คอร์ดเพลง ผีโรงเย็น

0 | 0
โดย มาร์คจอหอ
เมื่อ 14 ปีที่แล้ว

คอร์ดเพลง ผีโรงเย็น

0 | 0
โดย มาร์คจอหอ
เมื่อ 14 ปีที่แล้ว

คอร์ดเพลง ผีโรงเย็น

0 | 0
โดย miti
เมื่อ 16 ปีที่แล้ว

เนื้อเพลง ผีโรงเย็น - พงษ์สิทธิ์ คำภีร์

Intro:

อยู่โรงบาลนั้นแสนยากเข็ญ ไม่มีใครเห็นใจพวกเรา

อยู่อย่างคนที่ไร้ญาติขาดมิตร เราเลยไม่คิดจะรักใคร

ด้วยไม่มีใครเข้าใจเรา ชอบมองเราในแง่ไม่ดี

ชอบเหยียดหยามพวกเรายิ่งนัก เศร้าใจสิ้นดี

หลงรักสาวซักคน(หลงรักสาวสักคน)

เขาไม่สนใจเรา(เขาไม่สนใจเรา)

ชีวิตจำต้องเศร้า เพราะเราเป็นผีโรง

เย็น Solo:
(ซ้ำ*)

(ผีโรงเย็น)ผีโรงเย็น(ผีโรงเย็น)ผีโรงเย็น(ผีโรงเย็น)ผีโรง..เย็น

Cover เพลงผีโรงเย็น


ยังไม่มี Cover เพลงนี้

[ ช่วยกันแบ่งปันคลิปเพลงที่คุณเล่นเอง ]

ฟังเพลง ผีโรงเย็น

มือปืน - พงษ์สิทธิ์ คำภีร์
เมื่อ 15 ปีที่แล้ว
ค้นพบคอร์ด 11 เวอร์ชั่น
อยู่ตรงนี้ - พงษ์สิทธิ์ คำภีร์
เมื่อ 13 ปีที่แล้ว
ค้นพบคอร์ด 7 เวอร์ชั่น
สุดใจ - พงษ์สิทธิ์ คำภีร์
เมื่อ 12 ปีที่แล้ว
ค้นพบคอร์ด 1 เวอร์ชั่น
แค่นั้น - พงษ์สิทธิ์ คำภีร์
เมื่อ 15 ปีที่แล้ว
ค้นพบคอร์ด 15 เวอร์ชั่น
แม่ - พงษ์สิทธิ์ คำภีร์
เมื่อ 14 ปีที่แล้ว
ค้นพบคอร์ด 12 เวอร์ชั่น
ตลอดเวลา - พงษ์สิทธิ์ คำภีร์
เมื่อ 17 ปีที่แล้ว
ค้นพบคอร์ด 16 เวอร์ชั่น
หนุ่มน้อย - พงษ์สิทธิ์ คำภีร์
เมื่อ 15 ปีที่แล้ว
ค้นพบคอร์ด 5 เวอร์ชั่น
เสมอ - ปู พงษ์สิทธิ์ คำภีร์
เมื่อ 11 ปีที่แล้ว
ค้นพบคอร์ด 6 เวอร์ชั่น
ไถ่เธอคืนมา - พงษ์สิทธิ์ คำภีร์
เมื่อ 17 ปีที่แล้ว
ค้นพบคอร์ด 11 เวอร์ชั่น
ผีโรงเย็น - พงษ์สิทธิ์ คำภีร์
เมื่อ 17 ปีที่แล้ว
ค้นพบคอร์ด 16 เวอร์ชั่น
โรงเรียนของหนู - พงษ์สิทธิ์ คำภีร์
เมื่อ 17 ปีที่แล้ว
ค้นพบคอร์ด 12 เวอร์ชั่น
ถามยาย - พงษ์สิทธิ์ คำภีร์
เมื่อ 13 ปีที่แล้ว
ค้นพบคอร์ด 4 เวอร์ชั่น
ใจบงการ - พงษ์สิทธิ์ คำภีร์
เมื่อ 12 ปีที่แล้ว
ค้นพบคอร์ด 4 เวอร์ชั่น
คิดถึง - พงษ์สิทธิ์ คำภีร์
เมื่อ 16 ปีที่แล้ว
ค้นพบคอร์ด 20 เวอร์ชั่น
โยโกฮาม่า - พงษ์สิทธิ์ คำภีร์
เมื่อ 13 ปีที่แล้ว
ค้นพบคอร์ด 3 เวอร์ชั่น
ทุกลมหายใจ - พงษ์สิทธิ์ คำภีร์
เมื่อ 15 ปีที่แล้ว
ค้นพบคอร์ด 3 เวอร์ชั่น
เรียนและงาน - ปู พงษ์สิทธิ์
เมื่อ 11 ปีที่แล้ว
ค้นพบคอร์ด 5 เวอร์ชั่น
ถึงเพื่อน - พงษ์สิทธิ์ คำภีร์
เมื่อ 16 ปีที่แล้ว
ค้นพบคอร์ด 6 เวอร์ชั่น
เสือ11ตัว - พงษ์สิทธิ์ คำภีร์
เมื่อ 10 ปีที่แล้ว
ค้นพบคอร์ด 3 เวอร์ชั่น
ม.ให้อะไร - พงษ์สิทธิ์ คำภีร์
เมื่อ 13 ปีที่แล้ว
ค้นพบคอร์ด 2 เวอร์ชั่น