คอร์ดเพลง พบเพื่อเพียงผ่าน - ซีล (Zeal)

Version 8
แกะโดย Jack
เมื่อ 26 ม.ค.2549,20:37น.
ดู 400 ครั้ง
1:----15s16--16--14-----------------------15s16--16--14----------------------------19------------ 
2:--------------------------17-16-17-16--------------------------17-16h17p16h17-----------------
3:--------------------------------------------------------------------------------------------------------------
4:--------------------------------------------------------------------------------------------------------------


1:---16s17--16-------------------------------------------------------------------------------------------
2:---------------------14--14--17-------------------------------17xx-16xx-12xx-10xx-9-10-12-
3:--------------------------------------11s13--11--16--------------------------------------------------
4:------------------------------------------------------------------------------------------------------------


1:--------------------------------------------------------------------------------------------------------------
2:-17xx-16xx-12xx-10xx-9-10-a.h.9--s12-10-9s10s9--s10---12-12-10-9--17--21-21^-21--
3:--------------------------------------------------------------------------------------------------------------
4:--------------------------------------------------------------------------------------------------------------
ชัวร์
คอร์ดเพลง พบเพื่อเพียงผ่าน

ความคิดเห็นเกี่ยวกับคอร์ดนี้

เวอร์ชั่นทั้งหมดของคอร์ดเพลงนี้

คอร์ดเพลง พบเพื่อเพียงผ่าน

0 | 0
โดย ......
เมื่อ 12 ปีที่แล้ว

คอร์ดเพลง พบเพื่อเพียงผ่าน

0 | 0
โดย korn
เมื่อ 14 ปีที่แล้ว

คอร์ดเพลง พบเพื่อเพียงผ่าน

0 | 0
โดย Beer(เกรียน)
เมื่อ 14 ปีที่แล้ว

คอร์ดเพลง พบเพื่อเพียงผ่าน

0 | 0
โดย Mr.Thaworn
เมื่อ 14 ปีที่แล้ว

คอร์ดเพลง พบเพื่อเพียงผ่าน

0 | 0
โดย Mr.Thaworn
เมื่อ 14 ปีที่แล้ว

คอร์ดเพลง พบเพื่อเพียงผ่าน

0 | 0
โดย เอก ACsp
เมื่อ 14 ปีที่แล้ว

คอร์ดเพลง พบเพื่อเพียงผ่าน

0 | 0
โดย เอก ACsp
เมื่อ 14 ปีที่แล้ว

คอร์ดเพลง พบเพื่อเพียงผ่าน

0 | 0
โดย Champ 301Kps.
เมื่อ 14 ปีที่แล้ว

คอร์ดเพลง พบเพื่อเพียงผ่าน

0 | 0
โดย NOX
เมื่อ 14 ปีที่แล้ว

คอร์ดเพลง พบเพื่อเพียงผ่าน

0 | 0
โดย วง 50 Minunte
เมื่อ 14 ปีที่แล้ว

คอร์ดเพลง พบเพื่อเพียงผ่าน

0 | 0
โดย MO...Dr
เมื่อ 14 ปีที่แล้ว

คอร์ดเพลง พบเพื่อเพียงผ่าน

0 | 0
โดย เอก
เมื่อ 14 ปีที่แล้ว

คอร์ดเพลง พบเพื่อเพียงผ่าน

0 | 0
โดย Lauge วง Zeals
เมื่อ 14 ปีที่แล้ว

คอร์ดเพลง พบเพื่อเพียงผ่าน

0 | 0
โดย Jack
เมื่อ 14 ปีที่แล้ว

คอร์ดเพลง พบเพื่อเพียงผ่าน

0 | 0
โดย คิด
เมื่อ 14 ปีที่แล้ว

คอร์ดเพลง พบเพื่อเพียงผ่าน

0 | 0
โดย คิด
เมื่อ 14 ปีที่แล้ว

คอร์ดเพลง พบเพื่อเพียงผ่าน

0 | 0
โดย ~[vinz]~
เมื่อ 14 ปีที่แล้ว

คอร์ดเพลง พบเพื่อเพียงผ่าน

0 | 0
โดย Au
เมื่อ 14 ปีที่แล้ว

คอร์ดเพลง พบเพื่อเพียงผ่าน

0 | 0
โดย Au
เมื่อ 14 ปีที่แล้ว

คอร์ดเพลง พบเพื่อเพียงผ่าน

0 | 0
โดย Positive
เมื่อ 14 ปีที่แล้ว

คอร์ดเพลง พบเพื่อเพียงผ่าน

0 | 0
โดย ouไม่sกดี
เมื่อ 14 ปีที่แล้ว

เนื้อเพลง พบเพื่อเพียงผ่าน - ซีล (Zeal)

เรื่องราวระหว่างสองเรา ฉันเข้าใจ เราคงไปไม่ไกลเกินกว่านี้
เธอมีเหตุผลของเธอ ก็รู้ดี เหตุผลที่ทำให้เธอเปลี่ยนไป

* อยากรักเธอจนวันสุดท้าย แต่ฉันก็พอเข้าใจ

** ว่า (ก็)พบกันเพื่อเพียงผ่าน เมื่อรักที่เธอต้องการ ไม่ใช่ฉัน
วันนั้นเธอแค่เหงาใจ ได้พบกันแค่ช่วงหนึ่ง
หมดวันเวลาที่มันลึกซึ้งก็ไป แม้รักเธอแค่ไหน ก็ไม่มีวัน

จะเหน็บหนาวจะเนิ่นนาน สักเท่าไหร่ เมื่อวันที่เธอต้องการ
ไปจากฉัน ไม่มีความหมาย ไม่แคร์ ไม่สำคัญ
กับฉันเธอคงแค่ผ่านเลยไป

ซ้ำ * **

*** Solo

ซ้ำ * ** **

Cover เพลงพบเพื่อเพียงผ่าน


ยังไม่มี Cover เพลงนี้

[ ช่วยกันแบ่งปันคลิปเพลงที่คุณเล่นเอง ]

ฟังเพลง พบเพื่อเพียงผ่าน

อย่าอยู่คนเดียว - ซีล (Zeal)
เมื่อ 14 ปีที่แล้ว
ค้นพบคอร์ด 26 เวอร์ชั่น
หมดชีวิตฉันให้เธอ - ซีล (Zeal) Feat. บัวชมพู ฟอร์ด
เมื่อ 12 ปีที่แล้ว
ค้นพบคอร์ด 1 เวอร์ชั่น
สองรัก - ซีล (Zeal)
เมื่อ 16 ปีที่แล้ว
ค้นพบคอร์ด 28 เวอร์ชั่น
พบเพื่อเพียงผ่าน - ซีล (Zeal)
เมื่อ 14 ปีที่แล้ว
ค้นพบคอร์ด 22 เวอร์ชั่น
แบบไหนที่เธอรัก - ซีล (Zeal)
เมื่อ 10 ปีที่แล้ว
ค้นพบคอร์ด 1 เวอร์ชั่น
ดาว - ซีล(Zeal)
เมื่อ 12 ปีที่แล้ว
ค้นพบคอร์ด 4 เวอร์ชั่น
จูบลา - ซีล (Zeal)
เมื่อ 15 ปีที่แล้ว
ค้นพบคอร์ด 7 เวอร์ชั่น
หยุดรักยังไง - ซีล (ZEAL)
เมื่อ 7 ปีที่แล้ว
ค้นพบคอร์ด 3 เวอร์ชั่น
บุคคลตัวอย่าง - ซีล (Zeal)
เมื่อ 11 ปีที่แล้ว
ค้นพบคอร์ด 1 เวอร์ชั่น
ไม่รู้ทำไม - ซีล
เมื่อ 14 ปีที่แล้ว
ค้นพบคอร์ด 4 เวอร์ชั่น
ใจโทรมๆ - ซีล (Zeal)
เมื่อ 16 ปีที่แล้ว
ค้นพบคอร์ด 5 เวอร์ชั่น
แบบไหนที่เธอจะรัก - ซีล (Zeal)
เมื่อ 10 ปีที่แล้ว
ยังไม่มีคอร์ด
ยังอยู่ตรงนี้ - ซีล (Zeal)
เมื่อ 13 ปีที่แล้ว
ค้นพบคอร์ด 7 เวอร์ชั่น
จากตรงนี้ - ซีล (Zeal)
เมื่อ 15 ปีที่แล้ว
ค้นพบคอร์ด 3 เวอร์ชั่น
ขี้หึง - ซีล (Zeal)
เมื่อ 16 ปีที่แล้ว
ค้นพบคอร์ด 7 เวอร์ชั่น
เงาในหัวใจ (Ost. เงาใจ) - เป๊กซ์ ซีล (Zeal feat. หนูนา หนึ่งธิดา)
เมื่อ 5 ปีที่แล้ว
ค้นพบคอร์ด 1 เวอร์ชั่น
ไมรู้ทำไม - ซีล(Zeal)
เมื่อ 15 ปีที่แล้ว
ค้นพบคอร์ด 6 เวอร์ชั่น
ปล่อย - ซีล (Zeal)
เมื่อ 11 ปีที่แล้ว
ค้นพบคอร์ด 1 เวอร์ชั่น
ไม่ต้องการเห็นใครบางคน(ที่ไม่รักกัน)-ZEAL - ซีล (ZEAL)
เมื่อ 11 ปีที่แล้ว
ยังไม่มีคอร์ด
เธอคือความรัก - ซีล (Zeal)
เมื่อ 14 ปีที่แล้ว
ค้นพบคอร์ด 6 เวอร์ชั่น