คอร์ดเพลง พันธ์ทิพย์ - เสก โลโซ (Sek Loso)

Version 2
แกะโดย adida
เมื่อ 13 ม.ค.2550,14:56น.
ดู 10138 ครั้ง



solo tab
1>-----------------/--------------------/-------------------/----------------------
2>-----------------/--------------3----/-5(BU)------2--/----------------------
3>-----------------/-2-----4----------/-------------------/----------------------
ห้องที่5
1>------3--------/---------3---------/---------5---------/---9------------------
2>------3--------/---------3---------/---------5---------/--10(S)-------14--
3.-------4--------/---------4---------/---------6---------/---9------------------
ห้องที่9
1>---14---------/-------------------/---------------------/----------------------
2>---17(BU)--/----17--14------/-----------14------/----------------------
3>---------------/--------------15--/----------------15-/----------------------
4>---------------/-------------------/---16--------------/-----16--------17---
ห้องที่13
1>-15----------/--15--------------/--------------------/-----17---------------
2>----15-------/------15------15-/-17(BU)15-17(BU)/--17-15-17--
3>-------16----/----------16------/--------------------/-----------------------
4>-----------17/-------------------/---------------------/-----------------------
วิธีอ่านแท๊บ
ตัวอย่างห้องที่13 ใช้นิ้วมือข้างที่ใช้กดเฟสกดไปที่เฟส15ของสายที่1แล้วดีด

ตัวเลขที่อยู่หน้าสุดคือเลขที่ของสายกีต้า ตัวเลขที่อยู่ถัดๆไปคือเลขที่ของเฟสบนคอกีต้า
(BU)คือเทคนิคดันสาย
(S) คือเทคนิคสไลด์
เครดิต G.T. v26 by Saksit Sooksukon ขอบคุณครับ
คอร์ดเพลง พันธ์ทิพย์

ความคิดเห็นเกี่ยวกับคอร์ดนี้

เนื้อเพลง พันธ์ทิพย์ - เสก โลโซ (Sek Loso)

5 5
ก็ว่าจะ ชวนเธอไปดูหนัง และว่าจะชวนเธอไปกินข้าว อยากจะ







5 5
คุยเรื่องของ สองเรา เรื่องเก่า เก่าที่ยังค้างคา





Cover เพลงพันธ์ทิพย์


ยังไม่มี Cover เพลงนี้

[ ช่วยกันแบ่งปันคลิปเพลงที่คุณเล่นเอง ]

ฟังเพลง พันธ์ทิพย์

แม่ - เสก โลโซ (Sek Loso)
เมื่อ 15 ปีที่แล้ว
ค้นพบคอร์ด 13 เวอร์ชั่น
แม้ว่า - เสก โลโซ (Sek Loso)
เมื่อ 14 ปีที่แล้ว
ค้นพบคอร์ด 12 เวอร์ชั่น
เจ็บหัวใจ - เสก โลโซ (Sek Loso)
เมื่อ 10 ปีที่แล้ว
ค้นพบคอร์ด 2 เวอร์ชั่น
นานเท่าไหร่ก็รอ - เสก โลโซ (Sek Loso)
เมื่อ 15 ปีที่แล้ว
ค้นพบคอร์ด 10 เวอร์ชั่น
ไม่ยอมตัดใจ - เสก โลโซ (Sek Loso)
เมื่อ 10 ปีที่แล้ว
ค้นพบคอร์ด 10 เวอร์ชั่น
(ฉันคิดฯ)ฐานะอะไร - เสก โลโซ (Sek Loso)
เมื่อ 8 ปีที่แล้ว
ยังไม่มีคอร์ด
ห่วงใย - เสก โลโซ (Sek Loso)
เมื่อ 7 ปีที่แล้ว
ค้นพบคอร์ด 2 เวอร์ชั่น
เสือร้องไห้ - เสก โลโซ (Sek Loso)
เมื่อ 8 ปีที่แล้ว
ค้นพบคอร์ด 5 เวอร์ชั่น
อยากได้ยินว่ารักกัน - เสก โลโซ (Sek Loso)
เมื่อ 9 ปีที่แล้ว
ค้นพบคอร์ด 1 เวอร์ชั่น
พันธ์ทิพย์ - เสก โลโซ (Sek Loso)
เมื่อ 15 ปีที่แล้ว
ค้นพบคอร์ด 3 เวอร์ชั่น
เพื่อเธอคนเดียว - เสก โลโซ (Sek Loso)
เมื่อ 10 ปีที่แล้ว
ค้นพบคอร์ด 2 เวอร์ชั่น
ไม่ใช่ฉันใช่ไหม Feat. ดา Endorphin - เสก โลโซ (Sek Loso)
เมื่อ 9 ปีที่แล้ว
ยังไม่มีคอร์ด
คุณรู้ไหมครับ - เบิร์ด-เสก โลโซ
เมื่อ 15 ปีที่แล้ว
ค้นพบคอร์ด 13 เวอร์ชั่น
เก็บดาวมาให้เธอ - เสก โลโซ (Sek Loso)
เมื่อ 10 ปีที่แล้ว
ค้นพบคอร์ด 7 เวอร์ชั่น
ขอบใจจริงๆ - เสก โลโซ (Sek Loso)
เมื่อ 15 ปีที่แล้ว
ค้นพบคอร์ด 5 เวอร์ชั่น
รับ (แฟนเธอ) ไม่ได้ - เสก โลโซ (Sek Loso)
เมื่อ 15 ปีที่แล้ว
ค้นพบคอร์ด 7 เวอร์ชั่น
ควบคุมหัวใจตัวเองไม่ได้ - เสก โลโซ (Sek Loso)
เมื่อ 8 ปีที่แล้ว
ค้นพบคอร์ด 4 เวอร์ชั่น
คิดได้ยังไง - เสก โลโซ (Sek Loso)
เมื่อ 12 ปีที่แล้ว
ค้นพบคอร์ด 22 เวอร์ชั่น
ทุกลมหายใจ - เสก โลโซ (Sek Loso)
เมื่อ 13 ปีที่แล้ว
ค้นพบคอร์ด 7 เวอร์ชั่น
เยอะ - เสก โลโซ (Sek Loso)
เมื่อ 7 ปีที่แล้ว
ค้นพบคอร์ด 2 เวอร์ชั่น