คอร์ดเพลง ภาษากาย - โปเตโต้ (Potato)

Version 12
แกะโดย Dong
เมื่อ 27 มี.ค.2549,19:58น.
ดู 636 ครั้ง
เพลง ภาษากาย  - Potato

Intro: C/Am(2 times)

C Am
ยอมให้ไปแล้ว เมื่อหัวใจเธออยู่ที่ตรงนั้น
Dm G Dm G
เมื่อฉันไม่ใช่คนที่เธอฝัน ในใจ...ตามมันไป...หัวใจ
C Am
ก่อนจะโดนทิ้ง อยากใช้เวลาส่วนที่ยังเหลือ
Dm G Dm G
เพื่อร่ำลาเธอคนที่เคยคบกันมา.......ขอเวลาไม่นาน....โว....โห...
C Am
* จะโกรธมั้ย ถ้ารบกวนอะไรอีกครั้ง
Dm G
ให้เหมือนวันที่เรารักกัน อยากจะจำภาพเธอเอาไว้
C Am
และจะโกรธมั้ย ถ้าขอดึงเธอมากอดไว้
Dm Em
เพื่อพูดแทนคำในหัวใจ ภาษากาย
F G C
มันบอกลาได้ตรงหัวใจ ดีกว่าพูดจา


Instru: F/Am

C Am
มีอยู่เป็นร้อย เก็บถ้อยคำลาอยู่ในใจฉัน
Dm G
ให้พูดออกไปเพียงแค่วันนี้........มันคง...
Dm G
ใช้เวลา.....ไม่พอ............โว....โห...

Intro: ใช้เพาเวอร์คอร์ดธรรมดานะเเล้วให้เบสโซ่โล่เอาเพราะสุด

ท่อนในเพลง
C Am
ยอมให้ไปแล้ว เมื่อหัวใจเธออยู่ที่ตรงนั้น
1/-------------------0---------------------------------------------------3-----------------------
2/----------------3---------------------------------------------------3-------------------------
3/-------------0-------1------------------------------------------0---------1-----------------
4/-----------------------------------------------------------------------------------------------
5/-------------------------------------------------------------------------------------------

Dm7 G Dm7 G
เมื่อฉันไม่ใช่คนที่เธอฝัน ในใจ.. .ตามมันไป.. . หัวใจ
1/---------------------------------------------------5>3------------------------------------------3
2/----------------------------0/1---------------------------------------------0/1---------------3
3/----------------------0/2-------0------------------------------------0/2------- 0------------0--
4/--------------------------------------------------------------------------------------------------0
5/--------------------------------------------------------------------------------------------------2

C Am
ก่อนจะโดนทิ้ง อยากใช้เวลาส่วนที่ยังเหลือ
1/-------------------------------------------------------------------------------------------------
2/------------------13---------13--------13---------13----12h13^h12---------------------
3/---------x-x-12------x12-------x12------x-12-----------------------------------------------
4/--------------------------------------------------------------------------------------------------
5/--------------------------------------------------------------------------------------------------

ซ้ำๆอ่ะนะ ท่อนนี้

C Am
* จะโกรธมั้ย ถ้ารบกวนอะไรอีกครั้ง
1/------------------------------------12-----------12-------------12---12------------12-------------
2/----------------------------------------8-10-8-------10-8-10-----------10-8-10-----10-8-10-
3/----------------------------------------------------------------------------------------------------------
Dm G
ให้เหมือนวันที่เรารักกัน อยากจะจำภาพเธอเอาไว้
1/---8---------------------------------12-----------12-------------12---12------------12-------------
2/----------------------------------------8-10-8-------10-8-10-----------10-8-10-----10-8-10-
3/----------------------------------------------------------------------------------------------------------
C Am
และจะโกรธมั้ย ถ้าขอดึงเธอมากอดไว้
1/------------------------------------12-----------12-------------12---12------------12-------------
2/----------------------------------------8-10-8-------10-8-10-----------10-8-10-----10-8-10-
3/----------------------------------------------------------------------------------------------------------
Dm Em
เพื่อพูดแทนคำในหัวใจ ภาษากาย
F G C
มันบอกลาได้ตรงหัวใจ ดีกว่าพูดจา

ท่อนนี้ก็คล้ายๆกันนะลองฟังดูครับ

คอร์ดเพลง ภาษากาย

ความคิดเห็นเกี่ยวกับคอร์ดนี้

เวอร์ชั่นทั้งหมดของคอร์ดเพลงนี้

คอร์ดเพลง ภาษากาย

2 | 0
โดย Dong
เมื่อ 13 ปีที่แล้ว

คอร์ดเพลง ภาษากาย

0 | 0
โดย Tae' Tuxedo
เมื่อ 12 ปีที่แล้ว

คอร์ดเพลง ภาษากาย

0 | 0
โดย chainkung คนรักมิ้นaf3
เมื่อ 12 ปีที่แล้ว

คอร์ดเพลง ภาษากาย

0 | 0
โดย น้องนันท์นะงับ
เมื่อ 13 ปีที่แล้ว

คอร์ดเพลง ภาษากาย

0 | 0
โดย Dong
เมื่อ 13 ปีที่แล้ว

คอร์ดเพลง ภาษากาย

0 | 0
โดย บิว
เมื่อ 13 ปีที่แล้ว

คอร์ดเพลง ภาษากาย

0 | 0
โดย ~[vinz]~
เมื่อ 13 ปีที่แล้ว

คอร์ดเพลง ภาษากาย

0 | 0
โดย Sakura Naruto
เมื่อ 13 ปีที่แล้ว

คอร์ดเพลง ภาษากาย

0 | 0
โดย สุภาพบุรุษพเนจร
เมื่อ 13 ปีที่แล้ว

คอร์ดเพลง ภาษากาย

0 | 0
โดย ใหม่
เมื่อ 13 ปีที่แล้ว

คอร์ดเพลง ภาษากาย

0 | 0
โดย d
เมื่อ 13 ปีที่แล้ว

คอร์ดเพลง ภาษากาย

0 | 0
โดย Petote
เมื่อ 13 ปีที่แล้ว

คอร์ดเพลง ภาษากาย

0 | 0
โดย บอย
เมื่อ 13 ปีที่แล้ว

คอร์ดเพลง ภาษากาย

0 | 0
โดย บอย
เมื่อ 13 ปีที่แล้ว

คอร์ดเพลง ภาษากาย

0 | 0
โดย บอย
เมื่อ 13 ปีที่แล้ว

คอร์ดเพลง ภาษากาย

0 | 0
โดย บอย
เมื่อ 13 ปีที่แล้ว

เนื้อเพลง ภาษากาย - โปเตโต้ (Potato)


ยอมให้ไปแล้ว เมื่อหัวใจเธออยู่ที่ตรงนั้น

เมื่อฉันไม่ใช่คนที่เธอฝัน ในใจ...ตามมันไป...หัวใจ

ก่อนจะโดนทิ้ง อยากใช้เวลาส่วนที่ยังเหลือ

เพื่อร่ำลาเธอคนที่เคยคบกันมา.......ขอเวลาไม่นาน....โว....โห...


* จะโกรธมั้ย ถ้ารบกวนอะไรอีกครั้ง

ให้เหมือนวันที่เรารักกัน อยากจะจำภาพเธอเอาไว้

และจะโกรธมั้ย ถ้าขอดึงเธอมากอดไว้

เพื่อพูดแทนคำในหัวใจ ภาษากาย

มันบอกลาได้ตรงหัวใจ ดีกว่าพูดจา


มีอยู่เป็นร้อย เก็บถ้อยคำลาอยู่ในใจฉัน

ให้พูดออกไปเพียงแค่วันนี้........มันคง...

ใช้เวลา.....ไม่พอ............โว....โห...


(ซ้ำ *,*)


ครายแกะคอร์ดเพลงนี้ได้ก้อช่วยแกะให้ด้วยนะจ้ะ



Cover เพลงภาษากาย


ยังไม่มี Cover เพลงนี้

[ ช่วยกันแบ่งปันคลิปเพลงที่คุณเล่นเอง ]

ฟังเพลง ภาษากาย

เธอยัง - โปเตโต้ (Potato)
เมื่อ 8 ปีที่แล้ว
ค้นพบคอร์ด 7 เวอร์ชั่น
แพ้ใจ - โปเตโต้ (POTATO)
เมื่อ 7 ปีที่แล้ว
ค้นพบคอร์ด 4 เวอร์ชั่น
แชร์ (Share) - โปเตโต้ (Potato)
เมื่อ 10 ปีที่แล้ว
ค้นพบคอร์ด 1 เวอร์ชั่น
ไม่ให้เธอไป - โปเตโต้ (Potato)
เมื่อ 15 ปีที่แล้ว
ค้นพบคอร์ด 28 เวอร์ชั่น
ปากดี - โปเตโต้ (Potato)
เมื่อ 13 ปีที่แล้ว
ค้นพบคอร์ด 41 เวอร์ชั่น
รักเธอไปทุกวัน - โปเตโต้ (Potato)
เมื่อ 11 ปีที่แล้ว
ค้นพบคอร์ด 13 เวอร์ชั่น
ยิ่งใกล้ยิ่งเจ็บ - โปเตโต้ (Potato)
เมื่อ 14 ปีที่แล้ว
ค้นพบคอร์ด 6 เวอร์ชั่น
ขอบคุณที่รักกัน - โปเตโต้ (Potato)
เมื่อ 13 ปีที่แล้ว
ค้นพบคอร์ด 26 เวอร์ชั่น
ไม่รู้จะอธิบายยังไง - โปเตโต้ (POtATo)
เมื่อ 8 ปีที่แล้ว
ค้นพบคอร์ด 1 เวอร์ชั่น
อารมณ์สีเทา - โปเตโต้(Potato)
เมื่อ 11 ปีที่แล้ว
ค้นพบคอร์ด 10 เวอร์ชั่น
หวังดีเสมอ - โปเตโต้ (Potato)
เมื่อ 13 ปีที่แล้ว
ค้นพบคอร์ด 10 เวอร์ชั่น
ภาษากาย - โปเตโต้ (Potato)
เมื่อ 13 ปีที่แล้ว
ค้นพบคอร์ด 17 เวอร์ชั่น
กล้าพอไหม - โปเตโต้ (Potato)
เมื่อ 2020 ปีที่แล้ว
ค้นพบคอร์ด 20 เวอร์ชั่น
เพียงพอ - โปเตโต้ (Potato)
เมื่อ 12 ปีที่แล้ว
ค้นพบคอร์ด 34 เวอร์ชั่น
ขอบคุณที่รักกัน(Acoustic) - โปเตโต้ (Potato)
เมื่อ 13 ปีที่แล้ว
ค้นพบคอร์ด 17 เวอร์ชั่น
นี่แหละความเสียใจ - โปเตโต้ (Potato)
เมื่อ 12 ปีที่แล้ว
ค้นพบคอร์ด 39 เวอร์ชั่น
ชีวิตที่ขาดเธอ - โปเตโต้(potato)
เมื่อ 12 ปีที่แล้ว
ค้นพบคอร์ด 10 เวอร์ชั่น
ฉันคิดถึงเธอ - โปเตโต้ (POTATO)
เมื่อ 8 ปีที่แล้ว
ค้นพบคอร์ด 1 เวอร์ชั่น
คำตอบของหัวใจ - โปเตโต้ (Potato)
เมื่อ 11 ปีที่แล้ว
ค้นพบคอร์ด 21 เวอร์ชั่น
ทนพิษบาดแผลไม่ไหว - โปเตโต้ (Potato)
เมื่อ 10 ปีที่แล้ว
ค้นพบคอร์ด 6 เวอร์ชั่น