คอร์ดเพลง มือที่ไร้ไออุ่น - แคลช (Clash)

Version 5
แกะโดย ไก่เองจะ
เมื่อ 13 ธ.ค.2549,00:07น.
ดู 926 ครั้ง
ไม่ยากนะคับ โซโล่เพงนี้ ลองฝึกนิ้วให้ค่องไปก่อน ไม่ยากอย่างที่คิดคับ เวลาโซโลนั้นไม่ควนใช้ 3 นิ้ว ควรใช้นิ้วก้อยให้เปนปะโยช แรก ๆ อาดจะไม่ทัน หลัง ๆ จะไปไวเองคับ

SOLO

1)--------------------------------------------------------------------------------
2)-----------------------------------------------------------------------------
3)-/10-11-10-8h10-6-----6h8-4h6-3h4-1---------------------------
4)----------------------------------------------------------------------------
5)-----------------------------------------------------------------------------
6)------------------------------------------------------------------------------


1)--------------------------------------------------------------------------------
2)-----------------------------------------------------------------------------
3)-10-11-10-----13-11-11-10-11-13รัวๆ----11รัวๆ-8h10-------------
4)--------------11--------------------------------------------------------------
5)-----------------------------------------------------------------------------
6)------------------------------------------------------------------------------


1)--------------------------------------------------------------------------------
2)-12^--------11h12p11-----11h12p11-----------------------------
3)-----------13---------------13----------------13---11h13-10-------
4)----------------------------------------------------------------------------
5)-----------------------------------------------------------------------------
6)------------------------------------------------------------------------------

1)--------------------------------------------------------------------------------
2)-----------------------------------------------------------------------------
3)-10-11-10-----13-11--10h11p10------------------------------------
4)--------------11--------------------------11--------------------------------
5)-----------------------------------------------------------------------------
6)------------------------------------------------------------------------------


1)--------------------------------------------------------------------------------
2)--------------------------------------------12----11-12-12-12^--------
3)-------------------------------11-10-11----------------------------------
4)-11-9-11-12-11-9-8-11--------------------------------------------------
5)-----------------------------------------------------------------------------
6)------------------------------------------------------------------------------
speed หน่อยนะคับ ฝึกนิ้วให้ค่องเด๋วจะเรวเอง เพงนี้ส่วนใหย่เน้นรัวปิ๊กคับ

ปล.ผมอยู่ ม.3 เองคับ อยู่สุพัน (กรรนสูต) add msn ได้นะคับ rock_emotionhotmail.com ไม่รุ้ว่าที่แกะมาจะเหมือนพี่ ๆ คนอื่น ๆ ป่าว ความสามาดมีแค่นี้คับ ไม่เข้าจัยแอดมาถามได้คับ
คอร์ดเพลง มือที่ไร้ไออุ่น

ความคิดเห็นเกี่ยวกับคอร์ดนี้

เวอร์ชั่นทั้งหมดของคอร์ดเพลงนี้

คอร์ดเพลง มือที่ไร้ไออุ่น

28 | 4
โดย เจตน์
เมื่อ 12 ปีที่แล้ว

คอร์ดเพลง มือที่ไร้ไออุ่น

0 | 0
โดย kachen
เมื่อ 11 ปีที่แล้ว

คอร์ดเพลง มือที่ไร้ไออุ่น

0 | 0
โดย อันนี้ คอร์ดถูกแน่ครับ เอามาจากพี่ (พล)ในบริษัท
เมื่อ 11 ปีที่แล้ว

คอร์ดเพลง มือที่ไร้ไออุ่น

0 | 0
โดย Jo
เมื่อ 12 ปีที่แล้ว

คอร์ดเพลง มือที่ไร้ไออุ่น

0 | 0
โดย tooKung
เมื่อ 12 ปีที่แล้ว

คอร์ดเพลง มือที่ไร้ไออุ่น

0 | 0
โดย เบิ้ลวงPANDA
เมื่อ 12 ปีที่แล้ว

คอร์ดเพลง มือที่ไร้ไออุ่น

0 | 0
โดย ZenZer
เมื่อ 12 ปีที่แล้ว

คอร์ดเพลง มือที่ไร้ไออุ่น

0 | 0
โดย 134
เมื่อ 12 ปีที่แล้ว

คอร์ดเพลง มือที่ไร้ไออุ่น

0 | 0
โดย *-*
เมื่อ 12 ปีที่แล้ว

คอร์ดเพลง มือที่ไร้ไออุ่น

0 | 0
โดย ม่อน
เมื่อ 12 ปีที่แล้ว

คอร์ดเพลง มือที่ไร้ไออุ่น

0 | 0
โดย 121
เมื่อ 12 ปีที่แล้ว

คอร์ดเพลง มือที่ไร้ไออุ่น

0 | 0
โดย dek_thaita
เมื่อ 12 ปีที่แล้ว

คอร์ดเพลง มือที่ไร้ไออุ่น

0 | 0
โดย SickSenses
เมื่อ 12 ปีที่แล้ว

คอร์ดเพลง มือที่ไร้ไออุ่น

0 | 0
โดย เด็กป.น.
เมื่อ 12 ปีที่แล้ว

คอร์ดเพลง มือที่ไร้ไออุ่น

0 | 0
โดย ไวท์
เมื่อ 12 ปีที่แล้ว

คอร์ดเพลง มือที่ไร้ไออุ่น

0 | 0
โดย lnwBeer
เมื่อ 12 ปีที่แล้ว

คอร์ดเพลง มือที่ไร้ไออุ่น

0 | 0
โดย [Lord]_Love
เมื่อ 12 ปีที่แล้ว

คอร์ดเพลง มือที่ไร้ไออุ่น

0 | 0
โดย [Lord]_HaToRi
เมื่อ 12 ปีที่แล้ว

คอร์ดเพลง มือที่ไร้ไออุ่น

0 | 0
โดย นาลิ
เมื่อ 12 ปีที่แล้ว

คอร์ดเพลง มือที่ไร้ไออุ่น

0 | 0
โดย book
เมื่อ 12 ปีที่แล้ว

คอร์ดเพลง มือที่ไร้ไออุ่น

0 | 0
โดย book
เมื่อ 12 ปีที่แล้ว

คอร์ดเพลง มือที่ไร้ไออุ่น

0 | 0
โดย ยุ้ย เด็กหลังวัดศาลาลำดวน สระแก้ว
เมื่อ 12 ปีที่แล้ว

คอร์ดเพลง มือที่ไร้ไออุ่น

0 | 0
โดย ไก่เองจะ
เมื่อ 12 ปีที่แล้ว

คอร์ดเพลง มือที่ไร้ไออุ่น

0 | 0
โดย น้อย
เมื่อ 12 ปีที่แล้ว

คอร์ดเพลง มือที่ไร้ไออุ่น

0 | 0
โดย น้อย
เมื่อ 12 ปีที่แล้ว

คอร์ดเพลง มือที่ไร้ไออุ่น

0 | 0
โดย TIME_MAN
เมื่อ 12 ปีที่แล้ว

เนื้อเพลง มือที่ไร้ไออุ่น - แคลช (Clash)

รู้มาแค่นี้นะ

ถ้าหากว่าเขา....คือคนที่หามานาน ให้บอกกับฉัน...ยินยอมและพร้อมให้ไป.....

ไม่อยากจะกุมมือเธอที่ไร้ไออุ่น.... จะทนให้ไหว ในคืนที่หนาวเดียวดาย เธอรักเค้าจริงๆ..

________
ลองมั่วดูนะครับ^^ ไงอย่าว่ากันนะ

Cover เพลงมือที่ไร้ไออุ่น


ยังไม่มี Cover เพลงนี้

[ ช่วยกันแบ่งปันคลิปเพลงที่คุณเล่นเอง ]

ฟังเพลง มือที่ไร้ไออุ่น

เพื่อนไม่ทิ้งกัน - แคลช (Clash)
เมื่อ 14 ปีที่แล้ว
ค้นพบคอร์ด 10 เวอร์ชั่น
ฝากความยินดี - แคลช (Clash)
เมื่อ 8 ปีที่แล้ว
ค้นพบคอร์ด 3 เวอร์ชั่น
นางฟ้าคนเดิม - แคลช (Clash)
เมื่อ 13 ปีที่แล้ว
ค้นพบคอร์ด 41 เวอร์ชั่น
วังวน - แคลช (Clash)
เมื่อ 12 ปีที่แล้ว
ค้นพบคอร์ด 19 เวอร์ชั่น
เพลงสุดท้าย - แคลช (clash)
เมื่อ 9 ปีที่แล้ว
ค้นพบคอร์ด 1 เวอร์ชั่น
ไฟรัก - แคลช (Clash)
เมื่อ 13 ปีที่แล้ว
ค้นพบคอร์ด 32 เวอร์ชั่น
รอ - แคลช (Clash)
เมื่อ 12 ปีที่แล้ว
ค้นพบคอร์ด 29 เวอร์ชั่น
ขอเจ็บแทน - แคลช (Clash)
เมื่อ 12 ปีที่แล้ว
ค้นพบคอร์ด 33 เวอร์ชั่น
เธอจะอยู่กับฉันตลอดไป - แคลช (Clash)
เมื่อ 16 ปีที่แล้ว
ค้นพบคอร์ด 24 เวอร์ชั่น
ซบที่อกฉัน - แคลช (Clash)
เมื่อ 13 ปีที่แล้ว
ค้นพบคอร์ด 40 เวอร์ชั่น
กอด - แคลช (Clash)
เมื่อ 16 ปีที่แล้ว
ค้นพบคอร์ด 12 เวอร์ชั่น
เกินคำว่ารัก - แคลช clash
เมื่อ 11 ปีที่แล้ว
ค้นพบคอร์ด 17 เวอร์ชั่น
รับได้ทุกอย่าง - แคลช (Clash)
เมื่อ 16 ปีที่แล้ว
ค้นพบคอร์ด 15 เวอร์ชั่น
ปฏิเสธไม่ได้ว่ารักเธอ - แคล (Kal) Feat. แบงค์ แคลช (Clash)
เมื่อ 10 ปีที่แล้ว
ค้นพบคอร์ด 1 เวอร์ชั่น
อ้างว้าง - แคลช (Clash)
เมื่อ 14 ปีที่แล้ว
ค้นพบคอร์ด 4 เวอร์ชั่น
ขอเช็ดน้ำตา - แคลช (Clash)
เมื่อ 16 ปีที่แล้ว
ค้นพบคอร์ด 13 เวอร์ชั่น
ทิ้งรักลงแม่น้ำ - แคลช ((Clash) Pack4)
เมื่อ 14 ปีที่แล้ว
ค้นพบคอร์ด 8 เวอร์ชั่น
เพื่อเธอตลอดไป - แบงค์ แคลช
เมื่อ 14 ปีที่แล้ว
ค้นพบคอร์ด 15 เวอร์ชั่น
ผีเสื้อ - แคลช (Clash)
เมื่อ 13 ปีที่แล้ว
ค้นพบคอร์ด 31 เวอร์ชั่น
โรคประจำตัว - แคลช (Clash)
เมื่อ 14 ปีที่แล้ว
ค้นพบคอร์ด 22 เวอร์ชั่น