คอร์ดเพลง มือที่ไร้ไออุ่น - แคลช (Clash)

Version 10
แกะโดย [Lord]_HaToRi
เมื่อ 1 ม.ค.2550,13:29น.
ดู 571 ครั้ง
solo นะ
1-----------------------------------------------------------
2--8--------------7---7h8---7h8--7
3---------------------------------------------------------9------9/11
4------9--9--9-----9----------------------7--7---7------7

1-----------------------------------------------------------------------
2----------------------------------------------------------------------
3-9h11--9-------------7-----7/9--9--8--9--9/11--11----
4--------------5--5--5-----5-----------------------------------------

1-15---------------14---14h15-14h15--14
2
3----------------------------------------------------------------------15------17/19--
4---16--16--16--------16-------------------------14--14--14-------14-------

1-------------------------------------------------------------------------------------
2-17h19--17-------------------15-----15/17---17--16--17/19-----
3------------------12--12--12-----12---------------------------------------
4-----------------------------------------------------------------

1----15--17--19--------------
2-19-----------------------------
3----------------------
4-------------------
อันนี้ไม่รู้เหมือนป่าวนะ แต่เเกะเองครับ
เอาไปใช้ได้

คอร์ดเพลง มือที่ไร้ไออุ่น

ความคิดเห็นเกี่ยวกับคอร์ดนี้

เวอร์ชั่นทั้งหมดของคอร์ดเพลงนี้

คอร์ดเพลง มือที่ไร้ไออุ่น

28 | 4
โดย เจตน์
เมื่อ 12 ปีที่แล้ว

คอร์ดเพลง มือที่ไร้ไออุ่น

0 | 0
โดย kachen
เมื่อ 11 ปีที่แล้ว

คอร์ดเพลง มือที่ไร้ไออุ่น

0 | 0
โดย อันนี้ คอร์ดถูกแน่ครับ เอามาจากพี่ (พล)ในบริษัท
เมื่อ 11 ปีที่แล้ว

คอร์ดเพลง มือที่ไร้ไออุ่น

0 | 0
โดย Jo
เมื่อ 12 ปีที่แล้ว

คอร์ดเพลง มือที่ไร้ไออุ่น

0 | 0
โดย tooKung
เมื่อ 12 ปีที่แล้ว

คอร์ดเพลง มือที่ไร้ไออุ่น

0 | 0
โดย เบิ้ลวงPANDA
เมื่อ 12 ปีที่แล้ว

คอร์ดเพลง มือที่ไร้ไออุ่น

0 | 0
โดย ZenZer
เมื่อ 12 ปีที่แล้ว

คอร์ดเพลง มือที่ไร้ไออุ่น

0 | 0
โดย 134
เมื่อ 12 ปีที่แล้ว

คอร์ดเพลง มือที่ไร้ไออุ่น

0 | 0
โดย *-*
เมื่อ 12 ปีที่แล้ว

คอร์ดเพลง มือที่ไร้ไออุ่น

0 | 0
โดย ม่อน
เมื่อ 12 ปีที่แล้ว

คอร์ดเพลง มือที่ไร้ไออุ่น

0 | 0
โดย 121
เมื่อ 12 ปีที่แล้ว

คอร์ดเพลง มือที่ไร้ไออุ่น

0 | 0
โดย dek_thaita
เมื่อ 12 ปีที่แล้ว

คอร์ดเพลง มือที่ไร้ไออุ่น

0 | 0
โดย SickSenses
เมื่อ 12 ปีที่แล้ว

คอร์ดเพลง มือที่ไร้ไออุ่น

0 | 0
โดย เด็กป.น.
เมื่อ 12 ปีที่แล้ว

คอร์ดเพลง มือที่ไร้ไออุ่น

0 | 0
โดย ไวท์
เมื่อ 12 ปีที่แล้ว

คอร์ดเพลง มือที่ไร้ไออุ่น

0 | 0
โดย lnwBeer
เมื่อ 12 ปีที่แล้ว

คอร์ดเพลง มือที่ไร้ไออุ่น

0 | 0
โดย [Lord]_Love
เมื่อ 12 ปีที่แล้ว

คอร์ดเพลง มือที่ไร้ไออุ่น

0 | 0
โดย [Lord]_HaToRi
เมื่อ 12 ปีที่แล้ว

คอร์ดเพลง มือที่ไร้ไออุ่น

0 | 0
โดย นาลิ
เมื่อ 12 ปีที่แล้ว

คอร์ดเพลง มือที่ไร้ไออุ่น

0 | 0
โดย book
เมื่อ 12 ปีที่แล้ว

คอร์ดเพลง มือที่ไร้ไออุ่น

0 | 0
โดย book
เมื่อ 12 ปีที่แล้ว

คอร์ดเพลง มือที่ไร้ไออุ่น

0 | 0
โดย ยุ้ย เด็กหลังวัดศาลาลำดวน สระแก้ว
เมื่อ 12 ปีที่แล้ว

คอร์ดเพลง มือที่ไร้ไออุ่น

0 | 0
โดย ไก่เองจะ
เมื่อ 12 ปีที่แล้ว

คอร์ดเพลง มือที่ไร้ไออุ่น

0 | 0
โดย น้อย
เมื่อ 12 ปีที่แล้ว

คอร์ดเพลง มือที่ไร้ไออุ่น

0 | 0
โดย น้อย
เมื่อ 12 ปีที่แล้ว

คอร์ดเพลง มือที่ไร้ไออุ่น

0 | 0
โดย TIME_MAN
เมื่อ 12 ปีที่แล้ว

เนื้อเพลง มือที่ไร้ไออุ่น - แคลช (Clash)

รู้มาแค่นี้นะ

ถ้าหากว่าเขา....คือคนที่หามานาน ให้บอกกับฉัน...ยินยอมและพร้อมให้ไป.....

ไม่อยากจะกุมมือเธอที่ไร้ไออุ่น.... จะทนให้ไหว ในคืนที่หนาวเดียวดาย เธอรักเค้าจริงๆ..

________
ลองมั่วดูนะครับ^^ ไงอย่าว่ากันนะ

Cover เพลงมือที่ไร้ไออุ่น


ยังไม่มี Cover เพลงนี้

[ ช่วยกันแบ่งปันคลิปเพลงที่คุณเล่นเอง ]

ฟังเพลง มือที่ไร้ไออุ่น

เพื่อนไม่ทิ้งกัน - แคลช (Clash)
เมื่อ 14 ปีที่แล้ว
ค้นพบคอร์ด 10 เวอร์ชั่น
ฝากความยินดี - แคลช (Clash)
เมื่อ 8 ปีที่แล้ว
ค้นพบคอร์ด 3 เวอร์ชั่น
นางฟ้าคนเดิม - แคลช (Clash)
เมื่อ 13 ปีที่แล้ว
ค้นพบคอร์ด 41 เวอร์ชั่น
วังวน - แคลช (Clash)
เมื่อ 12 ปีที่แล้ว
ค้นพบคอร์ด 19 เวอร์ชั่น
เพลงสุดท้าย - แคลช (clash)
เมื่อ 9 ปีที่แล้ว
ค้นพบคอร์ด 1 เวอร์ชั่น
ไฟรัก - แคลช (Clash)
เมื่อ 13 ปีที่แล้ว
ค้นพบคอร์ด 32 เวอร์ชั่น
รอ - แคลช (Clash)
เมื่อ 12 ปีที่แล้ว
ค้นพบคอร์ด 29 เวอร์ชั่น
ขอเจ็บแทน - แคลช (Clash)
เมื่อ 12 ปีที่แล้ว
ค้นพบคอร์ด 33 เวอร์ชั่น
เธอจะอยู่กับฉันตลอดไป - แคลช (Clash)
เมื่อ 16 ปีที่แล้ว
ค้นพบคอร์ด 24 เวอร์ชั่น
ซบที่อกฉัน - แคลช (Clash)
เมื่อ 13 ปีที่แล้ว
ค้นพบคอร์ด 40 เวอร์ชั่น
กอด - แคลช (Clash)
เมื่อ 16 ปีที่แล้ว
ค้นพบคอร์ด 12 เวอร์ชั่น
เกินคำว่ารัก - แคลช clash
เมื่อ 11 ปีที่แล้ว
ค้นพบคอร์ด 17 เวอร์ชั่น
รับได้ทุกอย่าง - แคลช (Clash)
เมื่อ 16 ปีที่แล้ว
ค้นพบคอร์ด 15 เวอร์ชั่น
ปฏิเสธไม่ได้ว่ารักเธอ - แคล (Kal) Feat. แบงค์ แคลช (Clash)
เมื่อ 10 ปีที่แล้ว
ค้นพบคอร์ด 1 เวอร์ชั่น
อ้างว้าง - แคลช (Clash)
เมื่อ 14 ปีที่แล้ว
ค้นพบคอร์ด 4 เวอร์ชั่น
ขอเช็ดน้ำตา - แคลช (Clash)
เมื่อ 16 ปีที่แล้ว
ค้นพบคอร์ด 13 เวอร์ชั่น
ทิ้งรักลงแม่น้ำ - แคลช ((Clash) Pack4)
เมื่อ 14 ปีที่แล้ว
ค้นพบคอร์ด 8 เวอร์ชั่น
เพื่อเธอตลอดไป - แบงค์ แคลช
เมื่อ 14 ปีที่แล้ว
ค้นพบคอร์ด 15 เวอร์ชั่น
ผีเสื้อ - แคลช (Clash)
เมื่อ 13 ปีที่แล้ว
ค้นพบคอร์ด 31 เวอร์ชั่น
โรคประจำตัว - แคลช (Clash)
เมื่อ 14 ปีที่แล้ว
ค้นพบคอร์ด 22 เวอร์ชั่น