คอร์ดเพลง มือที่ไร้ไออุ่น - แคลช (Clash)

Version 26
แกะโดย kachen
เมื่อ 27 ก.พ.2551,10:47น.
ดู 567 ครั้ง


วง indelible
สมาชิก
โนช.ร้องนำ.แชม.กลอง.เชน.กีต้าsoloตี๋.กีต้า.และกร.เบส




e-1)-----------------------------------------------------------------I
B-2)-------------------3--------3--------3------------------------I
G-3)------------0----------0----------0----------0---------------I
D-4)--------4-----------4---------4----------4-------4----------I
A-5)-----------------------------------------------------------------I
E-6)--0-------------------------------------------------------------I

e-1)-----------------------------------------------------------------I
B-2)-------------------3--------3----------3----------------------I
G-3)--------------0----------0----------0---------0--------------I
D-4)---------4-----------4---------4----------4-------4---------I
A-5)---5------------------------------------------------------------I
E-6)-----------------------------------------------------------------I

e-1)-----------------------------------------------------------------I
B-2)-------------------3--------3--------3------------------------I
G-3)------------0----------0----------0-----------0--------------I
D-4)--------4-----------4---------4----------4-------4----------I
A-5)---3------------------------------------------------------------I
E-6)-----------------------------------------------------------------I

e-1)------------------------------2-------------------------------------I
B-2)----------------0---------------0----------------------------------I
G-3)-----------2--------2-------------0-------------------------------I
D-4)-------4---------------4-------------------------------------------I
A-5)---2---------------------------------------2-0--------------------I
E-6)----------------------------------------------------3-2-0---------I
Solo
e-1>----------------------------------------------------------------------------------------------------
B-2>-----------------------------------------------------------------------------------------------------
G-3>-12---------9----10h12-12-12p10--------7----9h11-11-9-11p9---------5---7h9-9
D-4>-----9-9-9----9-------------------------7-7-7---7-------------------------5-5-5---5--------

e-1>----------------------------
B-2>------------------------10~
G-3>-9-8-9-9s11------------
D-4>-----------------10-9-----

e-1>-----15------------12----13h15-15-15p13-------------10----12h14-14-12-14p12
B-2>-12----12-12-12---12------------------------10-10-10----10---------------------------
G-3>---------------------------------------------------------------------------------------------------
D-4>---------------------------------------------------------------------------------------------------

e-1>--------8---10h12-12-12-11----------------------------
B-2>-8-8-8--8------------------------13-12-------------------
G-3>---------------------------------------------12-11-----8h9~
D-4>-------------------------------------------------------9------
คอร์ดเพลง มือที่ไร้ไออุ่น

ความคิดเห็นเกี่ยวกับคอร์ดนี้

เวอร์ชั่นทั้งหมดของคอร์ดเพลงนี้

คอร์ดเพลง มือที่ไร้ไออุ่น

28 | 4
โดย เจตน์
เมื่อ 12 ปีที่แล้ว

คอร์ดเพลง มือที่ไร้ไออุ่น

0 | 0
โดย kachen
เมื่อ 11 ปีที่แล้ว

คอร์ดเพลง มือที่ไร้ไออุ่น

0 | 0
โดย อันนี้ คอร์ดถูกแน่ครับ เอามาจากพี่ (พล)ในบริษัท
เมื่อ 11 ปีที่แล้ว

คอร์ดเพลง มือที่ไร้ไออุ่น

0 | 0
โดย Jo
เมื่อ 12 ปีที่แล้ว

คอร์ดเพลง มือที่ไร้ไออุ่น

0 | 0
โดย tooKung
เมื่อ 12 ปีที่แล้ว

คอร์ดเพลง มือที่ไร้ไออุ่น

0 | 0
โดย เบิ้ลวงPANDA
เมื่อ 12 ปีที่แล้ว

คอร์ดเพลง มือที่ไร้ไออุ่น

0 | 0
โดย ZenZer
เมื่อ 12 ปีที่แล้ว

คอร์ดเพลง มือที่ไร้ไออุ่น

0 | 0
โดย 134
เมื่อ 12 ปีที่แล้ว

คอร์ดเพลง มือที่ไร้ไออุ่น

0 | 0
โดย *-*
เมื่อ 12 ปีที่แล้ว

คอร์ดเพลง มือที่ไร้ไออุ่น

0 | 0
โดย ม่อน
เมื่อ 12 ปีที่แล้ว

คอร์ดเพลง มือที่ไร้ไออุ่น

0 | 0
โดย 121
เมื่อ 12 ปีที่แล้ว

คอร์ดเพลง มือที่ไร้ไออุ่น

0 | 0
โดย dek_thaita
เมื่อ 12 ปีที่แล้ว

คอร์ดเพลง มือที่ไร้ไออุ่น

0 | 0
โดย SickSenses
เมื่อ 12 ปีที่แล้ว

คอร์ดเพลง มือที่ไร้ไออุ่น

0 | 0
โดย เด็กป.น.
เมื่อ 12 ปีที่แล้ว

คอร์ดเพลง มือที่ไร้ไออุ่น

0 | 0
โดย ไวท์
เมื่อ 12 ปีที่แล้ว

คอร์ดเพลง มือที่ไร้ไออุ่น

0 | 0
โดย lnwBeer
เมื่อ 12 ปีที่แล้ว

คอร์ดเพลง มือที่ไร้ไออุ่น

0 | 0
โดย [Lord]_Love
เมื่อ 12 ปีที่แล้ว

คอร์ดเพลง มือที่ไร้ไออุ่น

0 | 0
โดย [Lord]_HaToRi
เมื่อ 12 ปีที่แล้ว

คอร์ดเพลง มือที่ไร้ไออุ่น

0 | 0
โดย นาลิ
เมื่อ 12 ปีที่แล้ว

คอร์ดเพลง มือที่ไร้ไออุ่น

0 | 0
โดย book
เมื่อ 12 ปีที่แล้ว

คอร์ดเพลง มือที่ไร้ไออุ่น

0 | 0
โดย book
เมื่อ 12 ปีที่แล้ว

คอร์ดเพลง มือที่ไร้ไออุ่น

0 | 0
โดย ยุ้ย เด็กหลังวัดศาลาลำดวน สระแก้ว
เมื่อ 12 ปีที่แล้ว

คอร์ดเพลง มือที่ไร้ไออุ่น

0 | 0
โดย ไก่เองจะ
เมื่อ 12 ปีที่แล้ว

คอร์ดเพลง มือที่ไร้ไออุ่น

0 | 0
โดย น้อย
เมื่อ 12 ปีที่แล้ว

คอร์ดเพลง มือที่ไร้ไออุ่น

0 | 0
โดย น้อย
เมื่อ 12 ปีที่แล้ว

คอร์ดเพลง มือที่ไร้ไออุ่น

0 | 0
โดย TIME_MAN
เมื่อ 12 ปีที่แล้ว

เนื้อเพลง มือที่ไร้ไออุ่น - แคลช (Clash)

รู้มาแค่นี้นะ

ถ้าหากว่าเขา....คือคนที่หามานาน ให้บอกกับฉัน...ยินยอมและพร้อมให้ไป.....

ไม่อยากจะกุมมือเธอที่ไร้ไออุ่น.... จะทนให้ไหว ในคืนที่หนาวเดียวดาย เธอรักเค้าจริงๆ..

________
ลองมั่วดูนะครับ^^ ไงอย่าว่ากันนะ

Cover เพลงมือที่ไร้ไออุ่น


ยังไม่มี Cover เพลงนี้

[ ช่วยกันแบ่งปันคลิปเพลงที่คุณเล่นเอง ]

ฟังเพลง มือที่ไร้ไออุ่น

เพื่อนไม่ทิ้งกัน - แคลช (Clash)
เมื่อ 14 ปีที่แล้ว
ค้นพบคอร์ด 10 เวอร์ชั่น
ฝากความยินดี - แคลช (Clash)
เมื่อ 8 ปีที่แล้ว
ค้นพบคอร์ด 3 เวอร์ชั่น
นางฟ้าคนเดิม - แคลช (Clash)
เมื่อ 13 ปีที่แล้ว
ค้นพบคอร์ด 41 เวอร์ชั่น
วังวน - แคลช (Clash)
เมื่อ 12 ปีที่แล้ว
ค้นพบคอร์ด 19 เวอร์ชั่น
เพลงสุดท้าย - แคลช (clash)
เมื่อ 9 ปีที่แล้ว
ค้นพบคอร์ด 1 เวอร์ชั่น
ไฟรัก - แคลช (Clash)
เมื่อ 13 ปีที่แล้ว
ค้นพบคอร์ด 32 เวอร์ชั่น
รอ - แคลช (Clash)
เมื่อ 12 ปีที่แล้ว
ค้นพบคอร์ด 29 เวอร์ชั่น
ขอเจ็บแทน - แคลช (Clash)
เมื่อ 12 ปีที่แล้ว
ค้นพบคอร์ด 33 เวอร์ชั่น
เธอจะอยู่กับฉันตลอดไป - แคลช (Clash)
เมื่อ 16 ปีที่แล้ว
ค้นพบคอร์ด 24 เวอร์ชั่น
ซบที่อกฉัน - แคลช (Clash)
เมื่อ 13 ปีที่แล้ว
ค้นพบคอร์ด 40 เวอร์ชั่น
กอด - แคลช (Clash)
เมื่อ 16 ปีที่แล้ว
ค้นพบคอร์ด 12 เวอร์ชั่น
เกินคำว่ารัก - แคลช clash
เมื่อ 11 ปีที่แล้ว
ค้นพบคอร์ด 17 เวอร์ชั่น
รับได้ทุกอย่าง - แคลช (Clash)
เมื่อ 16 ปีที่แล้ว
ค้นพบคอร์ด 15 เวอร์ชั่น
ปฏิเสธไม่ได้ว่ารักเธอ - แคล (Kal) Feat. แบงค์ แคลช (Clash)
เมื่อ 10 ปีที่แล้ว
ค้นพบคอร์ด 1 เวอร์ชั่น
อ้างว้าง - แคลช (Clash)
เมื่อ 14 ปีที่แล้ว
ค้นพบคอร์ด 4 เวอร์ชั่น
ขอเช็ดน้ำตา - แคลช (Clash)
เมื่อ 16 ปีที่แล้ว
ค้นพบคอร์ด 13 เวอร์ชั่น
ทิ้งรักลงแม่น้ำ - แคลช ((Clash) Pack4)
เมื่อ 14 ปีที่แล้ว
ค้นพบคอร์ด 8 เวอร์ชั่น
เพื่อเธอตลอดไป - แบงค์ แคลช
เมื่อ 14 ปีที่แล้ว
ค้นพบคอร์ด 15 เวอร์ชั่น
ผีเสื้อ - แคลช (Clash)
เมื่อ 13 ปีที่แล้ว
ค้นพบคอร์ด 31 เวอร์ชั่น
โรคประจำตัว - แคลช (Clash)
เมื่อ 14 ปีที่แล้ว
ค้นพบคอร์ด 22 เวอร์ชั่น