คอร์ดเพลง มือใหม่ - บอดี้สแลม (Bodyslam)

Version 3
แกะโดย Andy
เมื่อ 26 มิ.ย.2549,19:56น.
ดู 2192 ครั้ง
มาแล้วคร๊าบ Tab Solo ที่คุณๆ ต้องการ เอ่า จัดไป ! 

E|--------------------------------------------------------------------------|
B|--13-(x8)--------------------------------------------------------------|
G|-------------14-14-13-14----14-13--------------------------------|
D|-------------------------------------------15-(x8)-h-17-(x8)--------|
A|--------------------------------------------------------------------------|
E|--------------------------------------------------------------------------|

E|-----------------------------------10-12/13-13-(x8)-h-15-(x8)----------------------|
B|---13-(x8)--------------------------------------------------------------13-13-12-13--|
G|---------------14-14-13h14-------------------------------------------------------------|
D|----------------------------------------------------------------------------------------------|
A|----------------------------------------------------------------------------------------------|
E|----------------------------------------------------------------------------------------------|

อ่ะ จบแล้วครับ ตรงตามแผ่น เป๊ะๆ 100% เอาไปเล่นดูนะ สนุกให้เต็มที่ ไปล่ะ !
คอร์ดเพลง มือใหม่

ความคิดเห็นเกี่ยวกับคอร์ดนี้

เนื้อเพลง มือใหม่ - บอดี้สแลม (Bodyslam)

เราไม่เคยตั้งใจ จะทำให้ใครต่อใครเขารำคาญ
รออีกเพียงไม่นาน อะไรที่เราได้ทำนั้นคงดี
เพียงให้โอกาสเราสักครั้ง ให้ทำตามความฝันสักที
แม้ว่าในวันนี้เรายังไม่เก่ง ขอลองได้ไหม

คนไม่ทำอะไร ไม่เคยต้องเจอความผิดหวังอะไร
คนที่ทำอะไร ที่ทำลงไปเกินผิดพลั้งคงมี
เราก็เป็นแค่คนที่ยังไม่เป็นก็เลยขอสักที
มันจะดีไม่ดี เราก็ต้องเสี่ยง ขอลองสักครั้ง

ก็เพราะว่าเรายังมือใหม่ ยังเป็นคนใหม่ ต้องขออภัยที่ยังไม่รู้
ก็เพราะไม่ยอมไม่เป็นคนเก่า ไม่อยากจะนอนเฉยอยู่ แค่อยากลองดูให้รู้ด้วยตัวเอง

เราจะลูกจะล้มจะซมจะซานอยู่อย่างนี้ไม่นาน
เราให้ความผิดเป็นสะพานที่เราต้องข้ามผ่านพ้นมันไป

Rap
I see the fast train through the tunnel.
Keep your head up high on your trouble.
(I wonder) Why all my friends enjoy these puzzles?
(They said) Use that "brainmuscle," you'll become.
Quality people!

ก็เพราะว่าเรายังมือใหม่ ยังเป็นคนใหม่ ต้องขออภัยที่ยังไม่รู้
ก็เพราะไม่ยอมไม่เป็นคนเก่า ไม่อยากจะนอนเฉยอยู่ แค่อยากลองดูให้รู้จริงๆ ซักที



อยากได้คอร์ดอะคับได้เนื้อแล้วช่วยแกะหน่อยจิ

Cover เพลงมือใหม่


ยังไม่มี Cover เพลงนี้

[ ช่วยกันแบ่งปันคลิปเพลงที่คุณเล่นเอง ]

ฟังเพลง มือใหม่

งมงาย - บอดี้สแลม (Bodyslam)
เมื่อ 16 ปีที่แล้ว
ค้นพบคอร์ด 23 เวอร์ชั่น
แสงสุดท้าย - บอดี้สแลม (bodyslam)
เมื่อ 9 ปีที่แล้ว
ค้นพบคอร์ด 3 เวอร์ชั่น
ความรัก - บอดี้สแลม (Bodyslam)
เมื่อ 9 ปีที่แล้ว
ค้นพบคอร์ด 13 เวอร์ชั่น
เปราะบาง - บอดี้สแลม (bodyslam)
เมื่อ 9 ปีที่แล้ว
ค้นพบคอร์ด 5 เวอร์ชั่น
ปลายทาง - บอดี้สแลม (Bodyslam)
เมื่อ 16 ปีที่แล้ว
ค้นพบคอร์ด 27 เวอร์ชั่น
สักวันฉันจะดีพอ - บอดี้สแลม (Bodyslam)
เมื่อ 15 ปีที่แล้ว
ค้นพบคอร์ด 14 เวอร์ชั่น
อกหัก - บอดี้สแลม (Bodyslam)
เมื่อ 12 ปีที่แล้ว
ค้นพบคอร์ด 63 เวอร์ชั่น
ความรักทำให้คนตาบอด - บอดี้สแลม (Bodyslam)
เมื่อ 14 ปีที่แล้ว
ค้นพบคอร์ด 45 เวอร์ชั่น
ขอบฟ้า - บอดี้สแลม (Bodyslam)
เมื่อ 14 ปีที่แล้ว
ค้นพบคอร์ด 29 เวอร์ชั่น
คิดฮอด - บอดี้สแลม (bodyslam)
เมื่อ 9 ปีที่แล้ว
ค้นพบคอร์ด 1 เวอร์ชั่น
ความเชื่อ - บอดี้สแลม (Bodyslam)
เมื่อ 14 ปีที่แล้ว
ค้นพบคอร์ด 23 เวอร์ชั่น
พูดในใจ - บอดี้สแลม (Bodyslam)
เมื่อ 14 ปีที่แล้ว
ค้นพบคอร์ด 13 เวอร์ชั่น
อากาศ - บอดี้สแลม (Bodyslam)
เมื่อ 15 ปีที่แล้ว
ค้นพบคอร์ด 24 เวอร์ชั่น
คนที่ถูกรัก - บอดี้สแลม (BodySlam)
เมื่อ 14 ปีที่แล้ว
ค้นพบคอร์ด 16 เวอร์ชั่น
เจ็บจนวันนี้ - บอดี้สแลม (Bodyslam)
เมื่อ 14 ปีที่แล้ว
ค้นพบคอร์ด 23 เวอร์ชั่น
นาฬิกาตาย - บอดี้สแลม (Bodyslam)
เมื่อ 12 ปีที่แล้ว
ค้นพบคอร์ด 23 เวอร์ชั่น
ยาพิษ - บอดี้สแลม (BodySlam)
เมื่อ 12 ปีที่แล้ว
ค้นพบคอร์ด 28 เวอร์ชั่น
หวั่นไหว - บอดี้สแลม (Bodyslam)
เมื่อ 16 ปีที่แล้ว
ค้นพบคอร์ด 30 เวอร์ชั่น
ห้ามใจ - บอดี้สแลม (Bodyslam)
เมื่อ 14 ปีที่แล้ว
ค้นพบคอร์ด 24 เวอร์ชั่น
Sticker (สติ๊กเกอร์) - บอดี้สแลม (BODYSLAM)
เมื่อ 9 ปีที่แล้ว
ค้นพบคอร์ด 2 เวอร์ชั่น