คอร์ดเพลง รักซะอย่าง - เอบีนอร์มอล (เอบี นอร์มอล (AB Normal)

Version 9
แกะโดย ROMOTUL
เมื่อ 23 มี.ค.2549,17:00น.
ดู 400 ครั้ง
Intro 2 รอบ

1---x-x---x-x-------------------------------------------------------------
2---x-x---x-x--------------------------------------------------------------
3---x-x---x-x------10-10--10-10-10--10-10-----------------------
4---x-x---x-x-------x---x----x---x---x----x---x------------------------------------
5---x-x---x-x-------8---8---8---8---8---8---8-----10/12-8------------------
6---x-x---x-x----------------------------------------------------------------------

Interlude (ท่อนกลาง)
1----------------------------------------------------------------------------------
2----------------------------------------------------------------------------------
3---10-10-10-------5--5--5-------3--3--3----5---------------------------
4----x---x---x--------x--x---x-------x--x---x----x------------------------------------------
5---8---8---8--------3--3--3-------1--1--1----3-----------------------
6------------------------------------------------------------------------------

Solo
1---------------------------------------------------------------------------------------------
2-------------------------------------------------------------------------/13--
3---9/10-10----9-9--------------------------9/10-10----9-9-----------------------------------------
4---------------------------10-10-----------------------------------------------
5--------------------------------------------------------------------------
6------------------------------------------------------------------------


1---------------------------8------------------------------------------------------------------
2------------------8-----------------8---------------------------------------------------------------
3----10------10----10------10------10-------/10--10-10-10------10--9-------------------------
4----10---------------------------------------------x----x---x---x--------x---x-------------------
5----8----------------------------------------------/8---8---8---8-------8---7----------------
6-------------------------------------------------------------------------------------

1---------------------------------------------------------------------------------------------
2--------------------------------------------------------------------------------------------------
3--10-10-10---9-9--12-12-12---10-10-10-9-10---------
4-------------------------------------------------------------------------------------
5---8--8---8----7-7--10-10-10----8--8---8---7-8--------------------------------------------
6-------------------------------------------------------------------------------------

1---------------------------------------------------------------------------------------------
2--------------------------------------------------------------------------------------------------
3--10-10-10---9-9--12-12-12---10-10-10-9-10---------
4-------------------------------------------------------------------------------------
5---8--8---8----7-7--10-10-10----8--8---8---7-8--------------------------------------------
6-------------------------------------------------------------------------------------

1---------------------------------------------------------------------------------------------
2-----------------------------------------------------------------------------------------------------
3----14-14-14-14-14-14-14-14--16-16-16-16-16-16-16-16--17------
4-------------------------------------------------------------------------------------------------
5----12-12-12-12-12-12-12-12--14-14-14-14-14-14-14-14--15-------------------------
6-------------------------------------------------------------------------------------

1---------------------------------------------------------------------------------------------
2----------------17--18-18-18-----18---18------
3-----15/17--------17-17-18-----17---17------
4-------------------------------------------------------------------------------------------------
5-------------------------------------------------------------------
6-------------------------------------------------------------------------------------

ไม่รุว่าเหมือนป่าว อิอิ

คอร์ดเพลง รักซะอย่าง

ความคิดเห็นเกี่ยวกับคอร์ดนี้

เวอร์ชั่นทั้งหมดของคอร์ดเพลงนี้

คอร์ดเพลง รักซะอย่าง

3 | 0
โดย Vaichara
เมื่อ 13 ปีที่แล้ว

คอร์ดเพลง รักซะอย่าง

0 | 0
โดย NUT
เมื่อ 13 ปีที่แล้ว

คอร์ดเพลง รักซะอย่าง

0 | 0
โดย อิ๊บ
เมื่อ 13 ปีที่แล้ว

คอร์ดเพลง รักซะอย่าง

0 | 0
โดย อิ๊บ
เมื่อ 13 ปีที่แล้ว

คอร์ดเพลง รักซะอย่าง

0 | 0
โดย น้องกฤษฎิ์
เมื่อ 13 ปีที่แล้ว

คอร์ดเพลง รักซะอย่าง

0 | 0
โดย AerO
เมื่อ 13 ปีที่แล้ว

คอร์ดเพลง รักซะอย่าง

0 | 0
โดย ขาจร
เมื่อ 13 ปีที่แล้ว

คอร์ดเพลง รักซะอย่าง

0 | 0
โดย เท่ห์
เมื่อ 13 ปีที่แล้ว

คอร์ดเพลง รักซะอย่าง

0 | 0
โดย Yamagu_Zaa
เมื่อ 13 ปีที่แล้ว

คอร์ดเพลง รักซะอย่าง

0 | 0
โดย X - Stream
เมื่อ 13 ปีที่แล้ว

คอร์ดเพลง รักซะอย่าง

0 | 0
โดย xcrazy drum perfect วง [ Zin ]
เมื่อ 13 ปีที่แล้ว

คอร์ดเพลง รักซะอย่าง

0 | 0
โดย ???
เมื่อ 13 ปีที่แล้ว

คอร์ดเพลง รักซะอย่าง

0 | 0
โดย ROMOTUL
เมื่อ 13 ปีที่แล้ว

คอร์ดเพลง รักซะอย่าง

0 | 0
โดย Play station
เมื่อ 13 ปีที่แล้ว

คอร์ดเพลง รักซะอย่าง

0 | 0
โดย Play station
เมื่อ 13 ปีที่แล้ว

คอร์ดเพลง รักซะอย่าง

0 | 0
โดย Play station
เมื่อ 13 ปีที่แล้ว

คอร์ดเพลง รักซะอย่าง

0 | 0
โดย FS:TOB (NMR3)
เมื่อ 13 ปีที่แล้ว

คอร์ดเพลง รักซะอย่าง

0 | 0
โดย เจมส์ภูเก็ต
เมื่อ 13 ปีที่แล้ว

คอร์ดเพลง รักซะอย่าง

0 | 0
โดย เพิ่งลองแกะคับ
เมื่อ 13 ปีที่แล้ว

คอร์ดเพลง รักซะอย่าง

0 | 0
โดย เพิ่งหัดเล่นคับ
เมื่อ 13 ปีที่แล้ว

เนื้อเพลง รักซะอย่าง - เอบีนอร์มอล (เอบี นอร์มอล (AB Normal)


คอร์ด โดย พี่กวาง NorMal


intro :




ดูไม่เคยเข้ากัน ก็เหมือนสำคัญตัวผิด



สิ่งที่ฉันทำ ทางที่ฉันไป จนใครเขาว่าสิ้นคิด



ทำก็ยังไม่เป็น และหลายครั้งยังทำผิด



แต่จะขอลอง แต่จะขอไป ก็จะทำให้ใจมันคิด




*ไม่ได้อยากเรียกร้อง ให้มายอมรับฉัน



ไม่ได้อยากดึงดัน ให้วุ่นวายใครใคร




** ก็ใจมันรัก ก็คนมันรัก ต่อให้หกล้มซมซานยังไง(ก็คนมันรัก)



อาจจะผิดพลั้ง อาจจะผิดหวัง แต่ก็ยังพร้อมจะยอมเป็นไป



ถึงต้องเหนื่อย แค่ไหน ฉันไม่ท้อ รักซะอย่างก็พอ







ทำอะไรก็ทำ ก็เพราะหัวใจมันสั่ง



อาจจะไม่ดี อย่างที่เขาทำ แต่ว่าฉันไม่เคยหลอกใจ



ในเมื่อใจว่ามา ไอฉันก็ว่าตามไป



ก็ถ้ารักจริง ก็ถ้าตั้งใจ มันก็คงต้องดีสักวัน


*,**


Solo :


**,**,**






Cover เพลงรักซะอย่าง


ยังไม่มี Cover เพลงนี้

[ ช่วยกันแบ่งปันคลิปเพลงที่คุณเล่นเอง ]

ฟังเพลง รักซะอย่าง

พูดไม่ค่อยเก่ง - เอบีนอร์มอล (ABnormal)
เมื่อ 14 ปีที่แล้ว
ค้นพบคอร์ด 13 เวอร์ชั่น
ใจน้อย - เอบีนอร์มอล (ABnormal)
เมื่อ 15 ปีที่แล้ว
ค้นพบคอร์ด 49 เวอร์ชั่น
I?m Sorry - เอบีนอร์มอล (เอบี นอร์มอล (AB Normal)
เมื่อ 13 ปีที่แล้ว
ค้นพบคอร์ด 18 เวอร์ชั่น
แฟนฉัน - เอบีนอร์มอล (ABnormal)
เมื่อ 16 ปีที่แล้ว
ค้นพบคอร์ด 15 เวอร์ชั่น
ชายคนหนึ่ง - เอบีนอร์มอล (AB Normal)
เมื่อ 13 ปีที่แล้ว
ค้นพบคอร์ด 5 เวอร์ชั่น
ตัวประกอบ - เอบีนอร์มอล (ABnormal)
เมื่อ 14 ปีที่แล้ว
ค้นพบคอร์ด 8 เวอร์ชั่น
I am Sorry - เอบีนอร์มอล (เอบี นอร์มอล (AB Normal)
เมื่อ 13 ปีที่แล้ว
ค้นพบคอร์ด 10 เวอร์ชั่น
คนไม่ดีก็มีหัวใจ (เพลงประกอบละครคุณชายจำแลง) - เอบีนอร์มอล (ABnormal)
เมื่อ 14 ปีที่แล้ว
ค้นพบคอร์ด 18 เวอร์ชั่น
รักซะอย่าง - เอบีนอร์มอล (เอบี นอร์มอล (AB Normal)
เมื่อ 13 ปีที่แล้ว
ค้นพบคอร์ด 21 เวอร์ชั่น
เรารักกัน - เอบีนอร์มอล (ABnormal)
เมื่อ 15 ปีที่แล้ว
ค้นพบคอร์ด 10 เวอร์ชั่น
ฉันรักเธอ(คิดในใจ) - เอบีนอร์มอล (เอบี นอร์มอล (AB Normal)
เมื่อ 13 ปีที่แล้ว
ค้นพบคอร์ด 11 เวอร์ชั่น
ขอบใจที่พูดความจริง - เอบีนอร์มอล (ABnormal)
เมื่อ 15 ปีที่แล้ว
ค้นพบคอร์ด 5 เวอร์ชั่น
เด็กกว่าแล้วไง - เอบีนอร์มอล (ABnormal)
เมื่อ 15 ปีที่แล้ว
ค้นพบคอร์ด 7 เวอร์ชั่น
เกงในฉัน(ล้อเลียนแฟนฉัน) - เอบีนอร์มอล (ABnormal)
เมื่อ 15 ปีที่แล้ว
ค้นพบคอร์ด 4 เวอร์ชั่น
คำธรรมดา - เอบีนอร์มอล (ABnormal)
เมื่อ 15 ปีที่แล้ว
ค้นพบคอร์ด 8 เวอร์ชั่น
อย่าดีกว่า - เอบีนอร์มอล (ABnormal)
เมื่อ 14 ปีที่แล้ว
ค้นพบคอร์ด 2 เวอร์ชั่น
ต้องการใครบ้างไหม - เอบีนอร์มอล (เอบี นอร์มอล (AB Normal)
เมื่อ 13 ปีที่แล้ว
ค้นพบคอร์ด 4 เวอร์ชั่น
เมื่อวาน วันนี้ พรุ่งนี้ - เอบีนอร์มอล (เอบี นอร์มอล (AB Normal)
เมื่อ 13 ปีที่แล้ว
ค้นพบคอร์ด 5 เวอร์ชั่น
(ไม่)เจ้าชู้... - เอบีนอร์มอล (เอบี นอร์มอล (AB Normal)
เมื่อ 13 ปีที่แล้ว
ค้นพบคอร์ด 3 เวอร์ชั่น
เจ็บใจ - เอบีนอร์มอล (เอบี นอร์มอล (AB Normal)
เมื่อ 13 ปีที่แล้ว
ยังไม่มีคอร์ด