คอร์ดเพลง รักเธอทั้งหมดของหัวใจ - พอส (Pause)

Version 7
แกะโดย God-Father
เมื่อ 5 ม.ค.2550,02:21น.
ดู 716 ครั้ง
ท่อน ฮุก เด้อ (รักเทอทั้งหมดของหัวใจ)
สงสัยไรถามที่ jnarog_16hotmail.com

1 -------------3----------------3---------------3-----------------3------------------1--------------
2 -----------------3----------------3---------------3----------------2-------------------3----------
3 ---------0----------------0---------------0----------------0------------------2-------------------
4 ----------------------------------------------------------------------------0-------------------
5 -----3----------------2----------------1----------------0----------------------------------------
6 -----------------------------------------------------------------------------------------------
รัก รักเทอทั้งหมดของหัวใจ...................................................................

1 ---------------1---------------------1--------------------1--------------------------------------
2 --------------------1---------------------1--------------------0----------------1----------------
3 ----------3--------------------3---------------------0--------------------------------0----------
4 -----------------------------------------------------------------------------2---------------------
5 ------4------------------3----------------------2---------------------0---------------------------
6 ------------------------------------------------------------------------------------------------------

1 -----------------0----------------------0-----------------------------------1----------------------
2 -----------------------0----2---------------0-----2------5---------------------3-----------------
3 -----------------------------2----------------------3------6----------2---------------------------
4 -----------2-----------------------0------------------------------0-------------------------------
5 ------0---------------------------------------------------------------------------------------------
6 -----------------------------------------------------------------------------------------------------

1 ----------------1-----------------------------------------------------------
2 ---------------------1-----0------0------1-------3-----------------------------
3 -----------2-------------------0-----0-------0---------------------------------
4 ------0-----------------------------------------------------------------------
5 ---------------------------------------------------------------------------
6 ----------------------------3-------------3----------------------------------

ซ้ำอีกทีนะ
แล้ว2บรรทัดสุดท้ายของ tab บน มาเล่นข่างล่างนี้
1 -----------------0-----------------------------0------------------------1--------------------------
2 -----------------------0----2-------------------------------------3---------3--------3----------
3 -----------------------------2-----2------------------------2--------------------2----------------
4 -----------2------------------------------0-----------0-------------------------------------------
5 ------0---------------------------------------------------------------------------------------------
6 -----------------------------------------------------------------------------------------------------

1 -------------------------------------------------3---------------3--------------------3------------3
2 --------------------0--------0---------------------3-------3-------3------------3------3------3--
3 ----------------0---------0-----0----------0----------0---------------------0--------------0---------
4 ------------0----------0-----------------------------------------------------------------------------
5 -----------------------------------------3---------------------------------2-------------------------
6 --------3---------------------------------------------------------------------------------------------

1 --------------3---------------3-------------------------------------------------------------------
2 ------------------1-------1-------1-----0--------0-------1-------3----1----------------------------
3 ----------0-----------0-----------------------0-------0-------0------------------------------------
4 -----------------------------------------------------------------------------------------------
5 -------0--------------------------------------------------------------------------------------------
6 ------------------------------------------3-----------------3------------------------------------------
คอร์ดเพลง รักเธอทั้งหมดของหัวใจ

ความคิดเห็นเกี่ยวกับคอร์ดนี้

เวอร์ชั่นทั้งหมดของคอร์ดเพลงนี้

คอร์ดเพลง รักเธอทั้งหมดของหัวใจ

186 | 9
โดย บอล
เมื่อ 9 ปีที่แล้ว

คอร์ดเพลง รักเธอทั้งหมดของหัวใจ

132 | 14
โดย Crespo
เมื่อ 15 ปีที่แล้ว

คอร์ดเพลง รักเธอทั้งหมดของหัวใจ

105 | 12
โดย janeloso
เมื่อ 10 ปีที่แล้ว

คอร์ดเพลง รักเธอทั้งหมดของหัวใจ

26 | 7
โดย nu-Anucha
เมื่อ 9 ปีที่แล้ว

คอร์ดเพลง รักเธอทั้งหมดของหัวใจ

0 | 0
โดย ขาจร
เมื่อ 12 ปีที่แล้ว

คอร์ดเพลง รักเธอทั้งหมดของหัวใจ

0 | 0
โดย monixe
เมื่อ 12 ปีที่แล้ว

คอร์ดเพลง รักเธอทั้งหมดของหัวใจ

0 | 0
โดย God-Father
เมื่อ 12 ปีที่แล้ว

คอร์ดเพลง รักเธอทั้งหมดของหัวใจ

0 | 0
โดย Drum P. Kidz มือกลองครับ
เมื่อ 13 ปีที่แล้ว

คอร์ดเพลง รักเธอทั้งหมดของหัวใจ

0 | 0
โดย เมียด่าให้พูดว่า ครับ
เมื่อ 13 ปีที่แล้ว

คอร์ดเพลง รักเธอทั้งหมดของหัวใจ

0 | 0
โดย 101
เมื่อ 14 ปีที่แล้ว

คอร์ดเพลง รักเธอทั้งหมดของหัวใจ

0 | 0
โดย monixe
เมื่อ 14 ปีที่แล้ว

เนื้อเพลง รักเธอทั้งหมดของหัวใจ - พอส (Pause)

Intro :


ทุกครั้งที่ฉันคิดถึงเธอ

ใจมันคอยบอกตัวเองอยู่เสมอ

ว่าเธอนั้นเป็นสุขไปแล้ว

ทุกครั้งที่ฉันนั้นเห็นภาพเธอ

วันคืนเก่าๆ ก็กลับมาเสมอ

มีแต่เธอที่จะไม่กลับมาแล้ว
+7
* ยังมีอีกหลายสิ่ง

ที่ฉันยังไม่เคยพูดสักที

และมีอีกหลายอย่าง

ที่ไม่เคยทำจนวันนี้

** ( บอก ) รัก.... รักเธอ
+7
ทั้งหมดของหัวใจ

สิ่งเหล่านั้นเก็บไว้ข้างใน

เธอได้ยินไหมคนดี

อยากขอ.....
+7
ให้ความรู้สึกที่ฉันมี

ส่งไปถึงเธอที่แสนดี

ว่าชีวิตนี้ฉันมีแต่เธอดังความฝัน

จะพบกัน ( อีกได้ไหม )

( แล้วสักวันจะไปหา )

Instru :


หากฉันนั้นรู้ตัว

ก็คงไม่มัวเก็บมาจนวันนี้

โอ้คนดีนั้นคงได้บอกไปแล้ว

( ซ้ำ * , ** )

Instru :

( ซ้ำ *, ** ,** )

Instru :

Cover เพลงรักเธอทั้งหมดของหัวใจ


ยังไม่มี Cover เพลงนี้

[ ช่วยกันแบ่งปันคลิปเพลงที่คุณเล่นเอง ]

ฟังเพลง รักเธอทั้งหมดของหัวใจ

ดาว - พอส (Pause)
เมื่อ 13 ปีที่แล้ว
ค้นพบคอร์ด 14 เวอร์ชั่น
ใจบางๆ - โจ้ วงพอส
เมื่อ 15 ปีที่แล้ว
ค้นพบคอร์ด 3 เวอร์ชั่น
รักเธอทั้งหมดของหัวใจ - พอส (Pause)
เมื่อ 15 ปีที่แล้ว
ค้นพบคอร์ด 17 เวอร์ชั่น
ข้อความ - พอส (Pause)
เมื่อ 16 ปีที่แล้ว
ค้นพบคอร์ด 7 เวอร์ชั่น
ที่ว่าง - พอส (Pause)
เมื่อ 15 ปีที่แล้ว
ค้นพบคอร์ด 51 เวอร์ชั่น
ดวงใจยังมีรัก - เดอะ พอสซิเบิล (the Possible)
เมื่อ 12 ปีที่แล้ว
ค้นพบคอร์ด 16 เวอร์ชั่น
กอดหมอน - พอส (Pause)
เมื่อ 13 ปีที่แล้ว
ค้นพบคอร์ด 13 เวอร์ชั่น
เติมใจให้กัน - พอส (Pause)
เมื่อ 13 ปีที่แล้ว
ค้นพบคอร์ด 5 เวอร์ชั่น
ความลับ - พอส Pause
เมื่อ 15 ปีที่แล้ว
ค้นพบคอร์ด 21 เวอร์ชั่น
ยื้อ - พอส (Pause)
เมื่อ 13 ปีที่แล้ว
ค้นพบคอร์ด 16 เวอร์ชั่น
เก๋า - พอสซิเบิ้ล (Possible)
เมื่อ 12 ปีที่แล้ว
ค้นพบคอร์ด 5 เวอร์ชั่น
สัมพันธ์ - พอส (Pause)
เมื่อ 14 ปีที่แล้ว
ค้นพบคอร์ด 8 เวอร์ชั่น
รักเธอมากกว่า - พอส
เมื่อ 11 ปีที่แล้ว
ยังไม่มีคอร์ด
ช่วยบอกได้ไหม - พอส (pause)
เมื่อ 12 ปีที่แล้ว
ค้นพบคอร์ด 6 เวอร์ชั่น
คนไม่มีวาสนา - พอส (pause)
เมื่อ 15 ปีที่แล้ว
ค้นพบคอร์ด 8 เวอร์ชั่น
มีเพียงเรา - พอส (pause)
เมื่อ 12 ปีที่แล้ว
ค้นพบคอร์ด 6 เวอร์ชั่น
บางสิ่ง - พอส (Pause)
เมื่อ 13 ปีที่แล้ว
ค้นพบคอร์ด 5 เวอร์ชั่น
จะรักเธอคนเดียว - พอส (Pause)
เมื่อ 13 ปีที่แล้ว
ค้นพบคอร์ด 2 เวอร์ชั่น
เปล่าๆ - พอส (Pause)
เมื่อ 13 ปีที่แล้ว
ค้นพบคอร์ด 5 เวอร์ชั่น
รักอลังการ - เดอะ พอสสิเบิล (ประกอบภาพยนต์ เก๋า...เก๋า)
เมื่อ 12 ปีที่แล้ว
ยังไม่มีคอร์ด