คอร์ดเพลง รักแท้ - ลาบานูน (Labanoon)

Version 4
แกะโดย Tae skumz
เมื่อ 29 มี.ค.2548,01:34น.
ดู 751 ครั้ง
solo กลางเพลง

E-----------------------------------------------------------------------------
B-12--10-8-10>12---10-8-10>12--->10-10---8-7-8>10-8-7-8>10-8-7-8>15-13-12-
G---------------------------------------------------------------------------------------------------------14-
D-----------------------------------------------------------------------------
A-----------------------------------------------------------------------------
E-----------------------------------------------------------------------------


E-------------------------------------15----17-15----15-----15-17-15-17-17(19)~~17--
B-13-12---------------------15-17--17---------17-----17--------------------------------------
G-------14--14(16)/12--------------------------------------------------------------------------
D-----------------------------------------------------------------------------------------------------
A------------------------------------------------------------------------------------------------------
E------------------------------------------------------------------------------------------------------
--UP-- --UP--

E-------------------------------------------------------------------------
B-13-12---12---------------------------------------------------------
G--------14----14-12-14-12-11-12-11-9-9---9,11,9-8~~--
D------------------------------------------------------------------------
A------------------------------------------------------------------------
E------------------------------------------------------------------------
คอร์ดเพลง รักแท้

ความคิดเห็นเกี่ยวกับคอร์ดนี้

เนื้อเพลง รักแท้ - ลาบานูน (Labanoon)

รักแท้
rtist : Labanoon
lbum : lear

Intro :


คงไม่ผิดอะไร เข้าใจ ใครก็ต้องอยากเจอ สิ่งดี

ไม่โทษเธอ ถ้าในวันนี้ ต้องการที่จะไป

มีแค่ใจดวงเดียว ให้เธอ แค่ ความรักและความ ห่วงใย

เขาคงมีให้มากกว่าใจ ฉันมีให้ไม่พอ


* มันมีที่ต่ำที่สูงต้องเข้าใจ

ไม่มีประโยชน์จะรั้ง จะฝืนเธอเอาไว้

จะอย่างไร ก็ต้องยอมรับ


** มีแค่เพียงรักแท้ ก็คงต้องแพ้ไป

ให้ไปเทียบกับใคร ก็ไม่มีค่า

ถูกแล้วที่เธอล้างลา มันก็ต้องเป็นไปอย่างนั้น โว้ ๆๆ


***อยากให้คน ๆ นั้น รักเธอ ให้เธอได้ดั่งใจเธอฝัน

เพราะฉันไม่โชคดีอย่างนั้น ฉันเลยไม่มีใคร

(*,**)


**** อยากจะมีรักแท้ ถึงแม้ต้องช้ำใจ

ฉันยังคงห่วงใย แม้เธอไม่ย้อน..มา

จากนี้ให้เธอรู้ว่า แม้เธอนั้นจะอยู่กับใคร

ฉันก็ยังรักเธอ

Solo:

(**,****)


ฉันก็ยังรักเธอ

ฉันก็ยังรักเธอ

Cover เพลงรักแท้


ยังไม่มี Cover เพลงนี้

[ ช่วยกันแบ่งปันคลิปเพลงที่คุณเล่นเอง ]

ฟังเพลง รักแท้

แฟนเก่า - ลาบานูน (Labanoon)
เมื่อ 16 ปีที่แล้ว
ค้นพบคอร์ด 16 เวอร์ชั่น
เท่าเดิม - ลาบานูน (Labanoon)
เมื่อ 14 ปีที่แล้ว
ค้นพบคอร์ด 10 เวอร์ชั่น
คิดในใจ - ลาบานูน (Labanoon)
เมื่อ 18 ปีที่แล้ว
ค้นพบคอร์ด 6 เวอร์ชั่น
รักแท้ - ลาบานูน (Labanoon)
เมื่อ 15 ปีที่แล้ว
ค้นพบคอร์ด 10 เวอร์ชั่น
ยาม - ลาบานูน (Labanoon)
เมื่อ 15 ปีที่แล้ว
ค้นพบคอร์ด 16 เวอร์ชั่น
เดาใจ - ลาบานูน Labanoon
เมื่อ 13 ปีที่แล้ว
ค้นพบคอร์ด 5 เวอร์ชั่น
อะไรก็ผิด - ลาบานูน (Labanoon)
เมื่อ 7 ปีที่แล้ว
ค้นพบคอร์ด 3 เวอร์ชั่น
191 - ลาบานูน (Labanoon)
เมื่อ 15 ปีที่แล้ว
ค้นพบคอร์ด 13 เวอร์ชั่น
ปฏิทิน - ลาบานูน (Labanoon)
เมื่อ 14 ปีที่แล้ว
ค้นพบคอร์ด 10 เวอร์ชั่น
บังอาจรักเธอ - ลาบานูน (Labanoon)
เมื่อ 15 ปีที่แล้ว
ค้นพบคอร์ด 8 เวอร์ชั่น
คนตัวดำ - ลาบานูน (Labanoon)
เมื่อ 13 ปีที่แล้ว
ค้นพบคอร์ด 7 เวอร์ชั่น
แอบรัก - ลาบานูน (Labanoon)
เมื่อ 15 ปีที่แล้ว
ค้นพบคอร์ด 5 เวอร์ชั่น
เป็นตายร้ายดี - ลาบานูน (Labanoon)
เมื่อ 14 ปีที่แล้ว
ค้นพบคอร์ด 8 เวอร์ชั่น
คำต้องห้าม - ลาบานูน (Labanoon)
เมื่อ 13 ปีที่แล้ว
ค้นพบคอร์ด 30 เวอร์ชั่น
ใจง่าย - ลาบานูน (Labanoon)
เมื่อ 16 ปีที่แล้ว
ค้นพบคอร์ด 5 เวอร์ชั่น
ซื่อ - ลาบานูน (Labanoon)
เมื่อ 15 ปีที่แล้ว
ค้นพบคอร์ด 7 เวอร์ชั่น
หนักใจ - ลาบานูน (Labanoon)
เมื่อ 15 ปีที่แล้ว
ค้นพบคอร์ด 4 เวอร์ชั่น
ฝันหวาน - ลาบานูน (Labanoon)
เมื่อ 14 ปีที่แล้ว
ค้นพบคอร์ด 14 เวอร์ชั่น
อย่าลำบาก - ลาบานูน
เมื่อ 16 ปีที่แล้ว
ค้นพบคอร์ด 4 เวอร์ชั่น
ถูกทุกข้อ - ลาบานูน (Labanoon)
เมื่อ 15 ปีที่แล้ว
ค้นพบคอร์ด 6 เวอร์ชั่น