คอร์ดเพลง รับได้ทุกอย่าง - แคลช (Clash)

Version 3
แกะโดย เด็กอุบล(จิ้ง)มือใหม่
เมื่อ 30 มี.ค.2548,09:01น.
ดู 553 ครั้ง
อันนี้แก้ใหม่นิดครับ
Intro รับได้ทุกอย่าง Clash
1)-------------------------------------------------------------------------------------------
2)-------------------------------------------------------------------------------
3)---2/4-----/7--------6----------2------/4----0----(2times)--------------------------------------
SOLO
G A Em G
1)-------------------------------------------------------------------------------------------
2)----/3-----------------/5/3----/5/3------------------------------------3------3---2-
3)---------------/7---------/4/2-----/4/2--/4/2/2/4/2-------------------------------------------
4)-/5-------------------------------------------/4/2/2/4/2----5/4-------/5--------/5--------/5--
5)------------------------------------------------------------------------------------------
6)-------------------------------------------------------------------------------------
E A C D
1)-------------------------------------------------------------------------------------------
2)-----------------------------------/55--5--53----------------------------------------
3)------4-------4------4------4--------------------------5---4---5--4--5--4-----4--2--4--2--
4)-/2------/2-----/2-------/2---------------------------------------------------------------------5--4---
5)-------------------------------------------------------------------------------------------------------------
6)-------------------------------------------------------------------------------------

E A C D
1)-------7------7--------7------7------7-----7-----/12--12--12--12--14----10-----------
2)-/5------/5------5------5-------5------5------------------------------------12-----13-12-13-12
3)-----------------------------------------------------------------------------------

E G แต่กลับมาเถอะทีรัก..A...... G Em G A
1)-------------------------------------------------------------------------------------------
2)(12)--12-10-12-10-----------------------------------------/15--/15----------------
3)------------------------------12--11-----12--11--12--14--------------------- 12-11--12--14--
C D
1)-------------------------------------------------------------------------------------------
2)-----/17---17----15^----15-------------------------------------------------------------------
คาดว่าแน่นอนนะคราบบบบบบบ
คอร์ดเพลง รับได้ทุกอย่าง

ความคิดเห็นเกี่ยวกับคอร์ดนี้

เวอร์ชั่นทั้งหมดของคอร์ดเพลงนี้

คอร์ดเพลง รับได้ทุกอย่าง

52 | 5
โดย เว็บมาสซาเตอร์
เมื่อ 16 ปีที่แล้ว

คอร์ดเพลง รับได้ทุกอย่าง

0 | 0
โดย เบนซ์
เมื่อ 5 ปีที่แล้ว

คอร์ดเพลง รับได้ทุกอย่าง

0 | 0
โดย nook
เมื่อ 11 ปีที่แล้ว

คอร์ดเพลง รับได้ทุกอย่าง

0 | 0
โดย น้องมิวครับ
เมื่อ 12 ปีที่แล้ว

คอร์ดเพลง รับได้ทุกอย่าง

0 | 0
โดย กบบ้านไร่
เมื่อ 12 ปีที่แล้ว

คอร์ดเพลง รับได้ทุกอย่าง

0 | 0
โดย คนหล่อ
เมื่อ 13 ปีที่แล้ว

คอร์ดเพลง รับได้ทุกอย่าง

0 | 0
โดย บอส เองงับ
เมื่อ 14 ปีที่แล้ว

คอร์ดเพลง รับได้ทุกอย่าง

0 | 0
โดย BaS
เมื่อ 14 ปีที่แล้ว

คอร์ดเพลง รับได้ทุกอย่าง

0 | 0
โดย Ruj barbarain
เมื่อ 14 ปีที่แล้ว

คอร์ดเพลง รับได้ทุกอย่าง

0 | 0
โดย เด็กอุบล(จิ้ง)มือใหม่
เมื่อ 14 ปีที่แล้ว

คอร์ดเพลง รับได้ทุกอย่าง

0 | 0
โดย aun1
เมื่อ 14 ปีที่แล้ว

เนื้อเพลง รับได้ทุกอย่าง - แคลช (Clash)


rtist : lash
lbum : lbum One

Intro : ( ซ้ำ 2 ครั้ง )


รู้อยู่แก่ใจ ว่าเธอไปไหนมา เห็นอยู่ตำตา ว่าเธอไปกับเขา

นับได้เกือบเดือนที่ฉัน ไม่เจอะเธอแม้เงา รู้หรือเปล่าว่าฉันคิดมากเท่าใด

ฮู...................


แค่หลับตาลงก็พอนึกภาพออก ไม่บอกก็รู้ว่าเธอทำอะไร

เมื่ออยู่กับเขาเธอเองคงจะใจถึงใจ คิดเมื่อไหร่มันเหมือนมีดกรีดทุกที


* แต่กลับมาเถอะที่รัก ถ้าวันนี้เขาไม่แคร์ จะกลับมาอย่างคนแพ้

ก็ไม่ต้องลำบากใจ จะไม่เอ่ยถามสักคำ จะไม่ตอกย้ำซ้ำเติมหัวใจ

จะโอบกอดเธอแม้ว่าเธอเคยกอดใคร ไม่เป็นไร ฉันรับได้ทุกอย่าง

Instru :


ฉันจับมือเธอ ด้วยมือที่ชุ่มเหงื่อ ไม่อยากจะคิด ว่าเหลือสักแค่ไหน

ทุกสิ่งที่ฉันได้เคย เฝ้าถนอมด้วยหัวใจ เธอคงให้ ให้เขาไปหมดแล้ว

ฮู...............ฮู............ฮู..............ฮู..............

Instru :

( ซ้ำ * )


ไม่เป็นไร ฉันรับได้ทุกอย่าง

Cover เพลงรับได้ทุกอย่าง


ยังไม่มี Cover เพลงนี้

[ ช่วยกันแบ่งปันคลิปเพลงที่คุณเล่นเอง ]

ฟังเพลง รับได้ทุกอย่าง

เพื่อนไม่ทิ้งกัน - แคลช (Clash)
เมื่อ 14 ปีที่แล้ว
ค้นพบคอร์ด 10 เวอร์ชั่น
ฝากความยินดี - แคลช (Clash)
เมื่อ 8 ปีที่แล้ว
ค้นพบคอร์ด 3 เวอร์ชั่น
นางฟ้าคนเดิม - แคลช (Clash)
เมื่อ 13 ปีที่แล้ว
ค้นพบคอร์ด 41 เวอร์ชั่น
วังวน - แคลช (Clash)
เมื่อ 12 ปีที่แล้ว
ค้นพบคอร์ด 19 เวอร์ชั่น
เพลงสุดท้าย - แคลช (clash)
เมื่อ 9 ปีที่แล้ว
ค้นพบคอร์ด 1 เวอร์ชั่น
ไฟรัก - แคลช (Clash)
เมื่อ 13 ปีที่แล้ว
ค้นพบคอร์ด 32 เวอร์ชั่น
รอ - แคลช (Clash)
เมื่อ 12 ปีที่แล้ว
ค้นพบคอร์ด 29 เวอร์ชั่น
ขอเจ็บแทน - แคลช (Clash)
เมื่อ 12 ปีที่แล้ว
ค้นพบคอร์ด 33 เวอร์ชั่น
เธอจะอยู่กับฉันตลอดไป - แคลช (Clash)
เมื่อ 16 ปีที่แล้ว
ค้นพบคอร์ด 24 เวอร์ชั่น
ซบที่อกฉัน - แคลช (Clash)
เมื่อ 13 ปีที่แล้ว
ค้นพบคอร์ด 40 เวอร์ชั่น
กอด - แคลช (Clash)
เมื่อ 16 ปีที่แล้ว
ค้นพบคอร์ด 12 เวอร์ชั่น
เกินคำว่ารัก - แคลช clash
เมื่อ 11 ปีที่แล้ว
ค้นพบคอร์ด 17 เวอร์ชั่น
รับได้ทุกอย่าง - แคลช (Clash)
เมื่อ 16 ปีที่แล้ว
ค้นพบคอร์ด 15 เวอร์ชั่น
ปฏิเสธไม่ได้ว่ารักเธอ - แคล (Kal) Feat. แบงค์ แคลช (Clash)
เมื่อ 10 ปีที่แล้ว
ค้นพบคอร์ด 1 เวอร์ชั่น
อ้างว้าง - แคลช (Clash)
เมื่อ 14 ปีที่แล้ว
ค้นพบคอร์ด 4 เวอร์ชั่น
ขอเช็ดน้ำตา - แคลช (Clash)
เมื่อ 16 ปีที่แล้ว
ค้นพบคอร์ด 13 เวอร์ชั่น
ทิ้งรักลงแม่น้ำ - แคลช ((Clash) Pack4)
เมื่อ 14 ปีที่แล้ว
ค้นพบคอร์ด 8 เวอร์ชั่น
เพื่อเธอตลอดไป - แบงค์ แคลช
เมื่อ 15 ปีที่แล้ว
ค้นพบคอร์ด 15 เวอร์ชั่น
ผีเสื้อ - แคลช (Clash)
เมื่อ 13 ปีที่แล้ว
ค้นพบคอร์ด 31 เวอร์ชั่น
โรคประจำตัว - แคลช (Clash)
เมื่อ 14 ปีที่แล้ว
ค้นพบคอร์ด 22 เวอร์ชั่น