คอร์ดเพลง ลืมตัว - Littlebird [ ลิตเติ้ลเบิร์ด ]

Version 5
แกะโดย เทคโนTPI สอท 49-11(เด็กระยอง)
เมื่อ 2 ต.ค.2549,05:48น.
ดู 489 ครั้ง
1)-----------------------------------------------------------------------------------------------------------------------------
2)----12*-----10---------10----12------------------12*--12--10^12^10^12^10----------10--12--14---------
3)-------------------9/11--------------9/11------9-----------------------------------------9/11-------------------------
4)-----------------------------------------------------------------------------------------------------------------------------
5)-----------------------------------------------------------------------------------------------------------------------------
6)-----------------------------------------------------------------------------------------------------------------------------


1)-----------------------------------------------------------------------------------------------------------------------------
2)---17*--17---19---------------------------------------------------------------------------------------------------------
3)---------------------16/18---16*-16-14-13-14-16-------------16*-16-14-13-14-16------------------------
4)------------------------------------------------------------16-----16----------------------------16---------------------
5)-----------------------------------------------------------------------------------------------------------------------------
6)-----------------------------------------------------------------------------------------------------------------------------

1)-----------------------------------------------------------------------------------------------------------------------------
2)-----------------------------------------------------------------------------------------------------------------------------
3)---13-(13*)--13^14^13-----------------------------------------------------------------------------------------------
4)-------------------------------14--12^14^12---11^12^11---9------9--11--12--------------------------------
5)--------------------------------------------------------------------------/9----------------12/14------(12)------------
6)------------------------------------------------------------------------------------------------------------------------------

ถ้าเล่นคอร์ดนี้

ลืมตัว
LittleBird

INTRO : A C#m/F#m/A C#m/E Esus4 E
A C#m F#m
แค่เธอเข้ามาทักทายยังเก็บไปคิด
A C#m E
ยิ่งเธอใกล้ชิดฉันเองก็ยิ่งได้ใจ
D E A F#m
เลยแอบไปนอนละเมอ เธอคงไม่ไกล
D Bm E
ฝันไว้คงได้รักกัน
A C#m F#m
* ไม่ดูตัวเอง ว่าควรจะอยู่แค่นี้
A C#m E
ไม่มองความจริงสักที ว่ามีเท่าไหร่
D E A F#m
เธออยู่ดีๆ ของเธอ เรามันเพ้อไป
D Bm E
เพิ่งเริ่มเข้าใจ ตอนนี้
D C#m
** เผลอลืมตัว ว่าเราเป็นคนสำคัญ
F#m A
เผลอใจสั่น เมื่อยามเธออยู่กับใคร
D D/C#m Bm E E7
ผิดไปแล้ว ที่ ได้ ทำ ให้เธอลำบากใจ
D C#m
*** เผลอลืมตัว เลยดูเป็นคนไม่ดี
F#m A A
ขอโทษที ที่ทำให้เธออับอาย ( ต้องอาย )
D D C#m Bm E
ต่อไปนี้ ไม่ ต้อง ห่วง เพราะฉันจะจากไป
D
แม้รู้แก่ใจว่ารักเธอ
SOLO : D/C#m/F#m/A/D/D C#m Bm/E
A C#m/F#m/A C#m/E Esus4 E

( ซ้ำ * / ** / *** )
SOLO : D/C#m/F#m/A
D D C#m Bm E
ต่อไปนี้ ไม่ ต้อง ห่วง เพราะฉันจะจากไป
A
แม้รู้แก่ใจว่ารักเธอ
คอร์ดเพลง ลืมตัว

ความคิดเห็นเกี่ยวกับคอร์ดนี้

เนื้อเพลง ลืมตัว - Littlebird [ ลิตเติ้ลเบิร์ด ]

INTRO :



แค่เธอเข้ามาทักทายยังเก็บไปคิด

ยิ่งเธอใกล้ชิดฉันเองก็ยิ่งได้ใจ

เลยแอบไปนอนละเมอ เธอคงไม่ไกล

ฝันไว้คงได้รักกัน



* ไม่ดูตัวเอง ว่าควรจะอยู่แค่นี้

ไม่มองความจริงสักที ว่ามีเท่าไหร่

เธออยู่ดีๆ ของเธอ เรามันเพ้อไป

เพิ่งเริ่มเข้าใจ ตอนนี้



** เผลอลืมตัว ว่าเราเป็นคนสำคัญ

เผลอใจสั่น เมื่อยามเธออยู่กับใคร

ผิดไปแล้ว ที่ได้ทำ ให้เธอลำบากใจ


*** เผลอลืมตัว เลยดูเป็นคนไม่ดี

ขอโทษที ทำทำให้เธออับอาย ( ต้องอาย )

ต่อไปนี้ ไม่ต้องห่วง เพราะฉันจะจากไป

แม้รู้แก่ใจว่ารักเธอ


SOLO :



( ซ้ำ * ** *** )


SOLO :



ต่อไปนี้ ไม่ต้องห่วง เพราะฉันจะจากไป

แม้รู้แก่ใจว่ารักเธอ

เพลงโปรด "

Cover เพลงลืมตัว


ยังไม่มี Cover เพลงนี้

[ ช่วยกันแบ่งปันคลิปเพลงที่คุณเล่นเอง ]

ฟังเพลง ลืมตัว