คอร์ดเพลง วังวน - แคลช (Clash)

Version 10
แกะโดย XeEiZaz
เมื่อ 18 ส.ค.2550,19:57น.
ดู 589 ครั้ง

intro

1|---------------------------------------------------------------------------------------------------
2|--5h6--/86--5/6--5------------------------------------------------------------------------
3|------------------------------5-----(5)/7----/75--4h5-(4)h(5)p4-----------/7-6------
4|----------------------------------7-------------------------------------------5-5---------------
5|--------------------------------------------------------------------------------------------------
6|--------------------------------------------------------------------------------------------------

1|-------------------------------------------------------------------------------------------------
2|---------------5--(6)/86--------------------------------------------------------------------
3|--(4)/6--7--------------------5-5--(4)h54----------------------------4h5p4----------
4|---------------------------------------------------------------------3-5-7-----------7--------
5|-------------------------------------------------------------3-5-7-----------------------------
6|-----------------------------------------------------3-5-7-------------------------------------

1|------------------------------------------
2|------------------------------------------
3|------------------------------------------
4|--9h10--5h7--0h2------------------
5|-------------------------0h2-0--------
6|-----------------------------------------
คอร์ดเพลง วังวน

ความคิดเห็นเกี่ยวกับคอร์ดนี้

เวอร์ชั่นทั้งหมดของคอร์ดเพลงนี้

คอร์ดเพลง วังวน

126 | 29
โดย เจตน์
เมื่อ 12 ปีที่แล้ว

คอร์ดเพลง วังวน

1 | 0
โดย ด่กดร
เมื่อ 11 ปีที่แล้ว

คอร์ดเพลง วังวน

1 | 0
โดย โจ้
เมื่อ 11 ปีที่แล้ว

คอร์ดเพลง วังวน

0 | 0
โดย ng
เมื่อ 11 ปีที่แล้ว

คอร์ดเพลง วังวน

0 | 0
โดย กุ้ง
เมื่อ 11 ปีที่แล้ว

คอร์ดเพลง วังวน

0 | 0
โดย DarK_DeviL
เมื่อ 11 ปีที่แล้ว

คอร์ดเพลง วังวน

0 | 0
โดย ...
เมื่อ 11 ปีที่แล้ว

คอร์ดเพลง วังวน

0 | 0
โดย XeEiZaz
เมื่อ 11 ปีที่แล้ว

คอร์ดเพลง วังวน

0 | 0
โดย เอ
เมื่อ 11 ปีที่แล้ว

คอร์ดเพลง วังวน

0 | 0
โดย นัทผู้ตอบคนเดิมจากคนที่132
เมื่อ 12 ปีที่แล้ว

คอร์ดเพลง วังวน

0 | 0
โดย Mr.mayday
เมื่อ 12 ปีที่แล้ว

คอร์ดเพลง วังวน

0 | 0
โดย เต่า
เมื่อ 12 ปีที่แล้ว

คอร์ดเพลง วังวน

0 | 0
โดย เต่า
เมื่อ 12 ปีที่แล้ว

คอร์ดเพลง วังวน

0 | 0
โดย เเ
เมื่อ 12 ปีที่แล้ว

คอร์ดเพลง วังวน

0 | 0
โดย เนตร [ลาดบัง2F/2]
เมื่อ 12 ปีที่แล้ว

เนื้อเพลง วังวน - แคลช (Clash)

วังวน
tist : lash
lbum : rashing

Intro :


... บ่อยที่ในหัวใจ เหมือนได้ยินเสียงเธอ

และบ่อยที่นอนละเมอ ยังเผลอเรียกเธออย่างเดิม ซ้ำๆ

* แต่ก็รู้ว่าเธอนั้นไปไกลสุดฟ้า และก็รู้ว่าเธอ ไม่มีวันคืนย้อนมา

อยากจะทำตัว ทำหัวใจให้แข็งแรง เหมือนดังเดิมอีกครั้ง

จะต้องเป็นอย่างนี้ นานเท่าไหร่ โอกาสที่มันจะหาย มองไม่เห็นทาง

ติดอยู่ในวังวนที่ไร้ทางออก...เพราะว่ารักคำเดียว...

Solo :

(*)

Cover เพลงวังวน


ยังไม่มี Cover เพลงนี้

[ ช่วยกันแบ่งปันคลิปเพลงที่คุณเล่นเอง ]

ฟังเพลง วังวน

เพื่อนไม่ทิ้งกัน - แคลช (Clash)
เมื่อ 14 ปีที่แล้ว
ค้นพบคอร์ด 10 เวอร์ชั่น
ฝากความยินดี - แคลช (Clash)
เมื่อ 8 ปีที่แล้ว
ค้นพบคอร์ด 3 เวอร์ชั่น
นางฟ้าคนเดิม - แคลช (Clash)
เมื่อ 13 ปีที่แล้ว
ค้นพบคอร์ด 41 เวอร์ชั่น
วังวน - แคลช (Clash)
เมื่อ 12 ปีที่แล้ว
ค้นพบคอร์ด 19 เวอร์ชั่น
เพลงสุดท้าย - แคลช (clash)
เมื่อ 9 ปีที่แล้ว
ค้นพบคอร์ด 1 เวอร์ชั่น
ไฟรัก - แคลช (Clash)
เมื่อ 13 ปีที่แล้ว
ค้นพบคอร์ด 32 เวอร์ชั่น
รอ - แคลช (Clash)
เมื่อ 12 ปีที่แล้ว
ค้นพบคอร์ด 29 เวอร์ชั่น
ขอเจ็บแทน - แคลช (Clash)
เมื่อ 12 ปีที่แล้ว
ค้นพบคอร์ด 33 เวอร์ชั่น
เธอจะอยู่กับฉันตลอดไป - แคลช (Clash)
เมื่อ 16 ปีที่แล้ว
ค้นพบคอร์ด 24 เวอร์ชั่น
ซบที่อกฉัน - แคลช (Clash)
เมื่อ 13 ปีที่แล้ว
ค้นพบคอร์ด 40 เวอร์ชั่น
กอด - แคลช (Clash)
เมื่อ 16 ปีที่แล้ว
ค้นพบคอร์ด 12 เวอร์ชั่น
เกินคำว่ารัก - แคลช clash
เมื่อ 11 ปีที่แล้ว
ค้นพบคอร์ด 17 เวอร์ชั่น
รับได้ทุกอย่าง - แคลช (Clash)
เมื่อ 16 ปีที่แล้ว
ค้นพบคอร์ด 15 เวอร์ชั่น
ปฏิเสธไม่ได้ว่ารักเธอ - แคล (Kal) Feat. แบงค์ แคลช (Clash)
เมื่อ 10 ปีที่แล้ว
ค้นพบคอร์ด 1 เวอร์ชั่น
อ้างว้าง - แคลช (Clash)
เมื่อ 14 ปีที่แล้ว
ค้นพบคอร์ด 4 เวอร์ชั่น
ขอเช็ดน้ำตา - แคลช (Clash)
เมื่อ 16 ปีที่แล้ว
ค้นพบคอร์ด 13 เวอร์ชั่น
ทิ้งรักลงแม่น้ำ - แคลช ((Clash) Pack4)
เมื่อ 14 ปีที่แล้ว
ค้นพบคอร์ด 8 เวอร์ชั่น
เพื่อเธอตลอดไป - แบงค์ แคลช
เมื่อ 14 ปีที่แล้ว
ค้นพบคอร์ด 15 เวอร์ชั่น
ผีเสื้อ - แคลช (Clash)
เมื่อ 13 ปีที่แล้ว
ค้นพบคอร์ด 31 เวอร์ชั่น
โรคประจำตัว - แคลช (Clash)
เมื่อ 14 ปีที่แล้ว
ค้นพบคอร์ด 22 เวอร์ชั่น