คอร์ดเพลง วิทลัยหลายใจ - วิด ไฮเปอร์ (Hyper)

Version 6
แกะโดย Riddick
เมื่อ 5 ส.ค.2550,15:04น.
ดู 566 ครั้ง
วิทลัยหลายใจ - ไฮเปอร์
ศิลปิน : ไฮเปอร์ (Hyper)
Intro : // C Em Am G F G C G
C Em Am G F G C G
ติดเอ็นสถาน จากบ้านมาห้าหกปี เรียนอะไรคนดี ถึงจบยากเย็นจริงหนอ
C Em Am G F Dm G
มีคนไปเห็น แม่เนื้อเย็นแถว อ.ต.ก. นั่งให้หนุ่ม เคลียคลอ นี้มันหลักสูตรใดหนา~~
C Em Am G F G C G
โทรไปกี่ครั้ง กี่โมงก็ยังติดเรียน ชั่งขยันหมั่นเพียร สองยามไม่ยอมเลิกรา
C Em Am G F G C
ถูกความหวั่นไหว ลบเร้าใจให้มาเจอหน้า ภาพที่เห็นกับตา เหมือนมีดกรีดกลางหัวใจ
Dm Em Am G F G C G
* มองเห็นเธอโยกกายกลางไฟหลากสี ใจจะขาดตรงนี้ คนเดิมของพี่ ไปไหน~~
Dm Em Am G F Dm G
แก้วเหล้ามือขวา ยกมือซ้ายมา คลองเอวผู้ชาย เธอมีสอบวันใด ขอให้เกรดดีนะเรา
C Em Am G F G C G
** แม่นักศึกษา พี่คงไม่กล้าไปทัก สิ้นสุดกันความรัก พี่คงพักใจอีกยาว
C Em Am G F G C G
จะจำเอาไว้ ว่าวิทลัย ที่น้องได้เข้า พี่จะบอกใครเขา เข้าเรียนแล้วจะหลายใจ
Solo : // C Em Am G F G C G /
C Em Am G F G C G

ซ้ำ ( * - ** )
C Em Am G F G C G
จะจำเอาไว้ ว่าวิทลัยที่น้องได้เข้า สอนหลักสูตรดื่มเหล้า เข้าพลับกับควงผู้ชาย
Solo : // C / Em / Am / G / F / G / C / C

Intro:
1/------------------------------/------------------------/------------------------------------------------
2/---------8-------------------/----------8-------------/--------8----------8---------------------------
3/--------------7>9-----------/---------------7>9----/------------7>9-------7--5-----5>75------
4/-5--7-----------------------/---5--7----------------/--5--7------------------------7-----------------
5/-----------------------------/------------------------/--------------------------------------------------
6/----------------------------/-------------------------/-------------------------------------------------

Solo:

1/------------------------------/-------------------------------------------------------------------------------
2/-->8-----8>10--8----------/-------------------------------------------------------------------------------
3/-------3---------------------/-------9--10---10>12----------------------------------12------------------
4/-----------------------------/---10---------------------10-------1012--12>14------------------------
5/-----------------------------/-------------------------------12----------------------------------------------
6/-----------------------------/--------------------------------------------------------------------------------

1/------------------------------------------------------------------------------------------------------------
2/-----------------------------------------------------10--13--13>15--12--------------------------------
3/----------------------9--10--10>12--12--12------------------------------------------------------------
4/------------10--12----------------------------------------------------------------------------------------
5/--10--12--------------------------------------------------------------------------------------------------
6/------------------------------------------------------------------------------------------------------------

คิดว่าประมาณนี้นะ แกะได้แค่นี้ท่อนต่อไปฟังไม่ค่อยชัดอะ

คอร์ดเพลง วิทลัยหลายใจ

ความคิดเห็นเกี่ยวกับคอร์ดนี้

เวอร์ชั่นทั้งหมดของคอร์ดเพลงนี้

คอร์ดเพลง วิทลัยหลายใจ

30 | 9
โดย แบงค์ วง
เมื่อ 11 ปีที่แล้ว

คอร์ดเพลง วิทลัยหลายใจ

0 | 0
โดย kornmusic
เมื่อ 11 ปีที่แล้ว

คอร์ดเพลง วิทลัยหลายใจ

0 | 0
โดย Apache
เมื่อ 11 ปีที่แล้ว

คอร์ดเพลง วิทลัยหลายใจ

0 | 0
โดย น้อย
เมื่อ 11 ปีที่แล้ว

คอร์ดเพลง วิทลัยหลายใจ

0 | 0
โดย Riddick
เมื่อ 11 ปีที่แล้ว

คอร์ดเพลง วิทลัยหลายใจ

0 | 0
โดย เสือสุพัน
เมื่อ 11 ปีที่แล้ว

คอร์ดเพลง วิทลัยหลายใจ

0 | 0
โดย 191
เมื่อ 11 ปีที่แล้ว

คอร์ดเพลง วิทลัยหลายใจ

0 | 0
โดย j
เมื่อ 11 ปีที่แล้ว

คอร์ดเพลง วิทลัยหลายใจ

0 | 0
โดย นายเป็นน้อย
เมื่อ 11 ปีที่แล้ว

เนื้อเพลง วิทลัยหลายใจ - วิด ไฮเปอร์ (Hyper)

วิท'ลัยหลายใจ วิด ไฮเปอร์


ติดเอ็นสะท้าน จากบ้านมาห้าหกปี
เรียนอะไรคนดี ถึงจบยากเย็นจริงหนอ
มีคนไปเห็นแม่เนื้อเย็นแถว อตก.
นั่งให้หนุ่มเคลียคลอ นี่มันหลักสูตรใดหนา

โทรไปกี่ครั้ง กี่โมงก็ยังติดเรียน
ช่างขยันหมั่นเพียร สองยามไม่ยอมเลิกรา
ถูกความหวั่นไหว รบเร้าใจให้มาเจอหน้า
ภาพที่เห็นกับตา เหมือนมีดกรีดกลางหัวใจ


*มองเห็นเธอโยกกายกลางไฟหลากสี
ใจจะขาดตรงนี้ คนเดิมของพี่ไปไหน
แก้วเหล้ามือขวา ยกมือซ้ายมาคล้องเอวผู้ชาย
เธอไม่สอบวันใด ขอให้เกรดดีนะเรา

**แม่นักศึกษา พี่คงไม่กล้าไปทัก
สิ้นสุดกันความรัก พี่คงพักใจอีกยาว
จะจำเอาไว้ว่า วิท'ลัยที่น้องเคยเข้า
พี่จะบอกใครเขา เข้าเรียนแล้วจะหลายใจ

solo

*,**

จะจำเอาไว้ว่า วิท'ลัยที่น้องเคยเข้า
สอนหลักสูตรดื่มเหล้า เข้าผับกับควงผู้ชาย

Cover เพลงวิทลัยหลายใจ


ยังไม่มี Cover เพลงนี้

[ ช่วยกันแบ่งปันคลิปเพลงที่คุณเล่นเอง ]

ฟังเพลง วิทลัยหลายใจ

วิทลัยหลายใจ - วิด ไฮเปอร์ (Hyper)
เมื่อ 12 ปีที่แล้ว
ค้นพบคอร์ด 11 เวอร์ชั่น
มักง่าย หลายใจ หลอกลวง - วิด ไฮเปอร์ (Hyper)
เมื่อ 10 ปีที่แล้ว
ค้นพบคอร์ด 2 เวอร์ชั่น
รักฉันเลิกกันดีกว่า - วิด ไฮเปอร์ (Hyper)
เมื่อ 11 ปีที่แล้ว
ค้นพบคอร์ด 1 เวอร์ชั่น
ไม่มั่วแต่ทั่วถึง - วิด ไฮเปอร์ (Hyper)
เมื่อ 8 ปีที่แล้ว
ค้นพบคอร์ด 2 เวอร์ชั่น
ปรากฏการณ์รัก - หลวงไก่ บ่าววี หนู มิเตอร์ วิด ไฮเปอร์ (จตุรทุ่ง)
เมื่อ 10 ปีที่แล้ว
ยังไม่มีคอร์ด
คืนนั้นอารมณ์พาไป...คืนนี้หัวใจพามา - วิด ไฮเปอร์ (Hyper)
เมื่อ 7 ปีที่แล้ว
ค้นพบคอร์ด 1 เวอร์ชั่น
ดูนางให้ดูเสื้อ - วิด ไฮเปอร์ (Hyper)
เมื่อ 9 ปีที่แล้ว
ยังไม่มีคอร์ด
ดูนางให้ดูเสื้อ - วิด ไฮเปอร์ (็Hyper)
เมื่อ 4 ปีที่แล้ว
ค้นพบคอร์ด 1 เวอร์ชั่น
ตรวจ DNA - วิด ไฮเปอร์ (Hyper)
เมื่อ 7 ปีที่แล้ว
ค้นพบคอร์ด 1 เวอร์ชั่น
กระเทยไม่เคยนอกใจ - วิด ไฮเปอร์ อาร์สยาม
เมื่อ 5 ปีที่แล้ว
ค้นพบคอร์ด 2 เวอร์ชั่น
เหล้าจ๋า - วิด ไฮเปอร์ (Hyper)
เมื่อ 5 ปีที่แล้ว
ค้นพบคอร์ด 1 เวอร์ชั่น
เธอง่ายเอง - วิด ไฮเปอร์ (Hyper)
เมื่อ 5 ปีที่แล้ว
ค้นพบคอร์ด 2 เวอร์ชั่น
รังเกียจไปแล้ว - วิด ไฮเปอร์ (Hyper)
เมื่อ 4 ปีที่แล้ว
ค้นพบคอร์ด 1 เวอร์ชั่น
รู้เห็นเป็นใจ - วิด ไฮเปอร์ (Hyper)
เมื่อ 5 ปีที่แล้ว
ค้นพบคอร์ด 1 เวอร์ชั่น
ใครขอให้เธอกลับมา - วิด ไฮเปอร์ (Hyper)
เมื่อ 5 ปีที่แล้ว
ค้นพบคอร์ด 1 เวอร์ชั่น
ทฤษฎีร้าย ๆ - วิด ไฮเปอร์ (Hyper)
เมื่อ 5 ปีที่แล้ว
ค้นพบคอร์ด 1 เวอร์ชั่น
ต้นงิ้วริมทาง - วิด ไฮเปอร์ (Hyper)
เมื่อ 5 ปีที่แล้ว
ค้นพบคอร์ด 1 เวอร์ชั่น
ปากหมาตัวดำ - วิด ไฮเปอร์ (Hyper)
เมื่อ 5 ปีที่แล้ว
ค้นพบคอร์ด 1 เวอร์ชั่น
คนสวยใจดำ - วิด ไฮเปอร์ (Hyper)
เมื่อ 5 ปีที่แล้ว
ค้นพบคอร์ด 1 เวอร์ชั่น
ชั่วครั้งชั่วคราว - วิด ไฮเปอร์ (Hyper)
เมื่อ 5 ปีที่แล้ว
ค้นพบคอร์ด 1 เวอร์ชั่น