คอร์ดเพลง ศาลาพักใจ - แสตมป์ (Stamp)

Version 12
แกะโดย เอ๊กซ์ ร้อยเอ็ดครับ
เมื่อ 12 พ.ค.2549,10:28น.
ดู 568 ครั้ง
  ศาลาพักใจ : แสตมป์

Am Em F C
*ฟ้าร้อง แดดร้อน ฝนตก เธอก็มา
Am Em F G
หายเหนื่อย เมื่อยล้า ฝนซา เธอก็ไป
Intro: Am / Em / F / G / Am / Em / F / G / C

6-------------------------------------------------------------------------------------------------------------
5-3-5-7-5-7-----------------5-3-5--3-5-7-5-7----------------------------------------10------------
4--------------5/7/5-2-3-2-----------------------5/7/9-9-10-9-10----------10-9----------------
3------------------------------------------------------------------------------7/9/7----------------------
2------------------------------------------------------------------------------------------------------------
1------------------------------------------------------------------------------------------------------------

Am Em F G
ฉันก็หลงดีใจ ที่เธอ ให้ความรักความสำคัญ
Am Em F C
เก็บเอาไปนอนเพ้อ แอบฝัน ว่าเรารักกันเหนือใคร
Am Em F G C G
แท้ที่จริง เธอนั้น ไม่เคยให้ความจริงใจ กับฉันเลย
Am Em F G
** พึ่งจะรู้วันนี้ ว่าเธอ ไม่เคยคิดจะสนใจ
Am Em F G C G
พึ่งจะรู้วันนี้ ว่าเธอ ต้องการแค่เพียงพักใจ ให้หายเหนื่อย

( * )

Am Em F C
***เธอทำเหมือนฉัน นั้นเป็น ดังเช่นศาลาริมทาง
Am G F G
เธอทำเหมือนฉัน นั้นเป็น แค่เพียงศาลาพักใจ
Am Em F C
ยามที่เธอเหนื่อยล้า ยามที่เธอผิดหวัง ก็ทำเหมือนมีใจให้
Am Em F G C G
ตอนที่เธอสมหวัง วันที่เธอมีใคร เธอก็เดินจากฉันไปไม่ลาซักคำ

Solo : Am / Em / F / G / Am / Em / F / C / Am / G / F / C / Am / Em / F /
G / Am

6-------------------------------------------------------------------------------------------------------------
5-------------------------------------------------------------------------------------------------------------
4-10-----------------------------------10-----------------------------------------------------------------
3----7-9-7-9------------------7-5-7----7-9-7-9-------------------------------------------------------
2--------------8/10/8-5-6-5---------------------8/10-8-10-12-12-13-12-13/15-13-12-13
1-------------------------------------------------------------------------------------------------------------
ต่อ...

6------------------------------------------------------------------------------------------------------------
5------------------------------------------------------------------------------------------------------------
4------------------------------------------------------------------------------------------------------------
3-14-----------------------------------------------12-12-14---------12-12-12-14--------12-12-
2-----13-15^-15-15^15-13-13-12-13------------------12-13----13----------12-13----13
1-----------------------------------------------15------------------------------------------------------
ต่อ...

4
3-12-14
2
1
ยังไม่เสร็จครับเดี๋ยวต่อให้..
( *, *** ,** )


Am Em C
ต้องการแค่มาพักใจให้หายเหนื่อย
Am Em C
ต้องการแค่ที่พักใจ ให้หายเหนื่อย

ขอโทษทีครับ...คือว่า เจ้าหนี้มาครับ..ขอตัวก่อนนะครับเหลืออีกนิดเดียวเดี๋ยวมาต่อให้..แต่ว่าถูกไม่ถูกยังไงติชมด้วยนะครับผมเพิ่งเขียนแท็ปเป็นครับ..เดี๋ยวเจอกันนะครับ ขอบคุณครับ
คอร์ดเพลง ศาลาพักใจ

ความคิดเห็นเกี่ยวกับคอร์ดนี้

เวอร์ชั่นทั้งหมดของคอร์ดเพลงนี้

คอร์ดเพลง ศาลาพักใจ

0 | 0
โดย mouse
เมื่อ 11 ปีที่แล้ว

คอร์ดเพลง ศาลาพักใจ

0 | 0
โดย กุ๊กไก่เด็กรักดนตรีครับ
เมื่อ 11 ปีที่แล้ว

คอร์ดเพลง ศาลาพักใจ

0 | 0
โดย lusifler
เมื่อ 12 ปีที่แล้ว

คอร์ดเพลง ศาลาพักใจ

0 | 0
โดย น้องมือกีต้าร์
เมื่อ 12 ปีที่แล้ว

คอร์ดเพลง ศาลาพักใจ

0 | 0
โดย golf mike
เมื่อ 12 ปีที่แล้ว

คอร์ดเพลง ศาลาพักใจ

0 | 0
โดย เอ็ม อเมซอน
เมื่อ 12 ปีที่แล้ว

คอร์ดเพลง ศาลาพักใจ

0 | 0
โดย กีต้ามือโปร
เมื่อ 12 ปีที่แล้ว

คอร์ดเพลง ศาลาพักใจ

0 | 0
โดย ปื๊ด สุทธิวราราม รุ่น ๙๓ ราชาลูกหนังขาสั้น
เมื่อ 12 ปีที่แล้ว

คอร์ดเพลง ศาลาพักใจ

0 | 0
โดย ร้อยเอ็ด
เมื่อ 12 ปีที่แล้ว

คอร์ดเพลง ศาลาพักใจ

0 | 0
โดย g
เมื่อ 12 ปีที่แล้ว

คอร์ดเพลง ศาลาพักใจ

0 | 0
โดย club--Zaa-*-baa-*-(rock)
เมื่อ 12 ปีที่แล้ว

คอร์ดเพลง ศาลาพักใจ

0 | 0
โดย นางพญาแรง
เมื่อ 12 ปีที่แล้ว

คอร์ดเพลง ศาลาพักใจ

0 | 0
โดย s6s66
เมื่อ 12 ปีที่แล้ว

คอร์ดเพลง ศาลาพักใจ

0 | 0
โดย พงษ์ วิศวะกรรมเครื่องกล
เมื่อ 12 ปีที่แล้ว

คอร์ดเพลง ศาลาพักใจ

0 | 0
โดย DarkCloud
เมื่อ 12 ปีที่แล้ว

คอร์ดเพลง ศาลาพักใจ

0 | 0
โดย ไม่บอก
เมื่อ 12 ปีที่แล้ว

คอร์ดเพลง ศาลาพักใจ

0 | 0
โดย InsanE
เมื่อ 12 ปีที่แล้ว

คอร์ดเพลง ศาลาพักใจ

0 | 0
โดย คนเขียนเพลง
เมื่อ 12 ปีที่แล้ว

คอร์ดเพลง ศาลาพักใจ

0 | 0
โดย คนชอบเพลง (เขียนเพลง)
เมื่อ 12 ปีที่แล้ว

คอร์ดเพลง ศาลาพักใจ

0 | 0
โดย นนท์
เมื่อ 12 ปีที่แล้ว

คอร์ดเพลง ศาลาพักใจ

0 | 0
โดย T-1000
เมื่อ 12 ปีที่แล้ว

คอร์ดเพลง ศาลาพักใจ

0 | 0
โดย ละ เมืองช้าง
เมื่อ 12 ปีที่แล้ว

คอร์ดเพลง ศาลาพักใจ

0 | 0
โดย siwadon@thai.com
เมื่อ 12 ปีที่แล้ว

คอร์ดเพลง ศาลาพักใจ

0 | 0
โดย เอ๊กซ์ ร้อยเอ็ดครับ
เมื่อ 12 ปีที่แล้ว

คอร์ดเพลง ศาลาพักใจ

0 | 0
โดย เอ๊กซ์ ร้อยเอ็ดครับ
เมื่อ 12 ปีที่แล้ว

คอร์ดเพลง ศาลาพักใจ

0 | 0
โดย เจ๋งเป้ง
เมื่อ 12 ปีที่แล้ว

คอร์ดเพลง ศาลาพักใจ

0 | 0
โดย เด็กโรงเรียนในฝัน
เมื่อ 12 ปีที่แล้ว

คอร์ดเพลง ศาลาพักใจ

0 | 0
โดย เอ๊กซ์ ร้อยเอ็ดครับ
เมื่อ 13 ปีที่แล้ว

คอร์ดเพลง ศาลาพักใจ

0 | 0
โดย เด็กตานี
เมื่อ 13 ปีที่แล้ว

คอร์ดเพลง ศาลาพักใจ

0 | 0
โดย 00000
เมื่อ 13 ปีที่แล้ว

คอร์ดเพลง ศาลาพักใจ

0 | 0
โดย แมนคุง
เมื่อ 13 ปีที่แล้ว

คอร์ดเพลง ศาลาพักใจ

0 | 0
โดย ติ้ด เด็กยะลา
เมื่อ 13 ปีที่แล้ว

คอร์ดเพลง ศาลาพักใจ

0 | 0
โดย เก๋า เด็กใต้
เมื่อ 13 ปีที่แล้ว

คอร์ดเพลง ศาลาพักใจ

0 | 0
โดย ดัง
เมื่อ 13 ปีที่แล้ว

คอร์ดเพลง ศาลาพักใจ

0 | 0
โดย ติ้ด เด็กยะลา
เมื่อ 13 ปีที่แล้ว

คอร์ดเพลง ศาลาพักใจ

0 | 0
โดย ติ้ด เด็กยะลา
เมื่อ 13 ปีที่แล้ว

คอร์ดเพลง ศาลาพักใจ

0 | 0
โดย บอลเด็กเพรชบุรี
เมื่อ 13 ปีที่แล้ว

คอร์ดเพลง ศาลาพักใจ

0 | 0
โดย บอลเด็กเพรชบุรี
เมื่อ 13 ปีที่แล้ว

คอร์ดเพลง ศาลาพักใจ

0 | 0
โดย อ.ดำ มหิงสา
เมื่อ 13 ปีที่แล้ว

เนื้อเพลง ศาลาพักใจ - แสตมป์ (Stamp)



*ฟ้าร้อง แดดร้อน ฝนตก เธอก็มา
หายเหนื่อย เมื่อยล้า ฝนซา เธอก็ไป

ฉันก็หลงดีใจ ที่เธอให้ความรักความสำคัญ
เก็บเอาไปนอนเพ้อ แอบฝัน ว่าเรารักกันเหนือใคร
แท้ที่จริง เธอนั้น ไม่เคยให้ความจริงใจ กับฉันเลย

** พึ่งจะรู้วันนี้ว่าเธอ ไม่เคยคิดจะสนใจ
พึ่งจะรู้วันนี้ว่าเธอ ต้องการแค่เพียงพักใจ ให้หายเหนื่อย

(*)

***เธอทำเหมือนฉันนั้นเป็น ดังเช่นศาลาริมทาง
เธอทำเหมือนฉันนั้นเป็น แค่เพียงศาลาพักใจ
ยามที่เธอเหนื่อยล้า ยามที่เธอผิดหวัง ก็ทำเหมือนมีใจให้
ตอนที่เธอสมหวัง วันที่เธอมีใคร เธอก็เดินจากฉันไปไม่ลาซักคำ

(*,***,**)

ต้องการแค่มาพักใจให้หายเหนื่อย
ต้องการแค่ที่พักใจ ให้หายเหนื่อย

Cover เพลงศาลาพักใจ


ยังไม่มี Cover เพลงนี้

[ ช่วยกันแบ่งปันคลิปเพลงที่คุณเล่นเอง ]

ฟังเพลง ศาลาพักใจ

วิญญาณ - แสตมป์ (Stamp)
เมื่อ 4 ปีที่แล้ว
ค้นพบคอร์ด 9 เวอร์ชั่น
ศาลาพักใจ - แสตมป์ (Stamp)
เมื่อ 13 ปีที่แล้ว
ค้นพบคอร์ด 39 เวอร์ชั่น
ยังรักกันอยู่ไหม - กลัวย แสตมป์
เมื่อ 10 ปีที่แล้ว
ค้นพบคอร์ด 1 เวอร์ชั่น
รักสามเศร้า - แสตมป์ (Stamp)
เมื่อ 14 ปีที่แล้ว
ค้นพบคอร์ด 7 เวอร์ชั่น
รักหมดใจ ใจหมดรัก - กล้วย แสตมป์
เมื่อ 8 ปีที่แล้ว
ค้นพบคอร์ด 6 เวอร์ชั่น
น้ำนิ่งไหลลึก - แสตมป์ (Stamp)
เมื่อ 10 ปีที่แล้ว
ค้นพบคอร์ด 2 เวอร์ชั่น
ตีสองหน้า(Hit มีเพลงให้โหลดครับ) - แสตมป์ (Stamp)
เมื่อ 12 ปีที่แล้ว
ค้นพบคอร์ด 2 เวอร์ชั่น
ความคิด - แสตมป์ (Stamp)
เมื่อ 10 ปีที่แล้ว
ค้นพบคอร์ด 8 เวอร์ชั่น
ตัวสำรอง - กล้วย แสตมป์
เมื่อ 10 ปีที่แล้ว
ค้นพบคอร์ด 2 เวอร์ชั่น
ยอมโง่ (ซึ่งครับ) - แสตมป์ (Stamp)
เมื่อ 12 ปีที่แล้ว
ค้นพบคอร์ด 4 เวอร์ชั่น
คนที่คุณก็รู้ว่าใคร - แสตมป์ (Stamp)
เมื่อ 10 ปีที่แล้ว
ค้นพบคอร์ด 4 เวอร์ชั่น
ครั้งสุดท้าย - แสตมป์ (Stamp)
เมื่อ 8 ปีที่แล้ว
ค้นพบคอร์ด 3 เวอร์ชั่น
หมาอีกตัว - กล้วย แสตมป์
เมื่อ 8 ปีที่แล้ว
ค้นพบคอร์ด 2 เวอร์ชั่น
ศาลาพักใจ - แสตมป์ (Stamp)
เมื่อ 12 ปีที่แล้ว
ค้นพบคอร์ด 3 เวอร์ชั่น
ชายกลาง - แสตมป์ (Stamp)
เมื่อ 7 ปีที่แล้ว
ค้นพบคอร์ด 3 เวอร์ชั่น
ปริญญาเพื่อแม่ - แสตมป์ (Stamp)
เมื่อ 12 ปีที่แล้ว
ค้นพบคอร์ด 1 เวอร์ชั่น
สมน้ำหน้า - แสตมป์ (Stamp)
เมื่อ 12 ปีที่แล้ว
ค้นพบคอร์ด 4 เวอร์ชั่น
คนอกหัก - กล้วย แสตมป์
เมื่อ 10 ปีที่แล้ว
ค้นพบคอร์ด 3 เวอร์ชั่น
ทฤษฏีสีชมพู - แสตมป์ (Stamp)
เมื่อ 11 ปีที่แล้ว
ยังไม่มีคอร์ด
ลมหายใจที่เหลืออยู่ - แสตมป์ (Stamp)
เมื่อ 10 ปีที่แล้ว
ค้นพบคอร์ด 2 เวอร์ชั่น