คอร์ดเพลง สองรัก - ซีล (Zeal)

Version 10
แกะโดย Want Experrien big (bass)
เมื่อ 18 ก.พ.2549,23:26น.
ดู 556 ครั้ง
intro   tab bass 
แต่ก่อนแต่ไรเข้าใจ ถ้าการเป็นคนรัก คือเรียนรู้กันและกัน
หากที่ใครคนหนึ่งไม่ใช้ตัวจริง ก็คงต้องจากกัน เหมืองดังเรื่องกับฉัน
1---------------------------------------------------------
2---------------------------------------------------------
3----5 5 5555--------------------------5 5 5555-----------------
4---------------------5 5 5555 ----------------------5 5 5555----------------

x คือโน้ตตัวโกส คือดีดโดยการเอานิ้วแต๊ะสาย
1--------------------------------------------------
2--------------------------------------------------
3--------------------555x55---4---222x22x2---777x77x7
4---555x55x5-----------------------------------------------

1------------------------------------------------
2------------------------------------------------
3-------------------------------------------------------555x55-สไรด์นิ้ว--777----4----
4--555x55x5---777x77x7---8---999x99x9

1-------------------------------------------------
2------------------------------------------------------------2-3-5
3---444x44x4----------------222x22x2--444x44------------4---------------
4------------------222x22x2-------------------------------

1---------------------------------------------------
2---------------------------------------------------
3--444x44x4----------------22-22-2222222-------------------------------
4-----------------222x22x2----------------------------------

ฮุค
1--------xxx----------xxx----------------------------------
2-----7-xxx------7---xxx-------------------------------------
3--5----xxx---5-----xxx--444----44---4--------------------
4--------xxx----------xxx--------4-----4----------------

1--------xxx----------xxx------------------------------------------
2-----7-xxx------7--xxx----------------------------------------------
3--5----xxx---5-----xxx---444-----44------4--------------------------------
4--------xxx---------xxx----------4--------4-------------------------

1--------xxx----------xxx--------------------------------------------------
2-----7-xxx-------7-xxx------------------------------------------------------
3--5----xxx----5-----xxx--444----------------22xx22----2-สไรด์-5555555----
4--------xxx----------xxx----------4---2222-------------------------------------
solo อันล้างนี้ ซ้ำ2ที
1------------------------------------------------------------------
2------------------------------------------------------------------
3---------------------------------22-2222----55--5555------
4---55-5555---00--0000---------------------------------
ส่วนท่อนจบ เหมือน intro ที่เป็นแทบอันแรกสุดเลยคับ เออส่วนท่อนร้องปกติตอนที่จบsolo
น่ะคับ มันจะบอกว่า "เธอบอกเหตุผลที่หยุดความรักระหว่างฉัน" ให้ดูtabที่ 4น่ะคับ
แล้วก็ต่อเลื่อยๆๆๆ แล้วก่อนจะจบ"เลือกซะที่จะเอา" แล้วก็ต่อ"สองรักฉันรับไม่ไหว"
เออแล้วก็จะบอกอย่างหนึ่งน่ะคับ tabที่ 6-8 น่ะคับ ไม่ต้องตกใจ ว่าอะไรคือxxx
จะบอกความจิงให้ฟังน่ะ ผมอธิบายจะเข้าใจป่าวน่ะ คือว่า 5 7 น่ะคือดีด เหมือนดีด
กีตาร์ แต่ดีด แค่ สาย 3กับ2 แล้ว xxx 4อันอ่ะน่ะก็โกส ก็วางนิ้วโดยไม่ต้องกดคอดร์
เบสเลยวางเฉยๆๆๆๆๆอ่ะแต่ต้องวางนิ้วทั้ง4สายแต่ย้ำน่ะว่าห้ามกดเพราะมันจะเพี้ยน
เลยละ แล้วดีดเหมือนกีตาร์เหมือนน่ะโกสตรงท่อนฮุกอ่ะ แต่โกสตัวอื่นน่ะไม่ต้องดีดเหมือนกีตาร์
ล่ะ นี้อธิบายละเอียดเลยน่ะนี้ จากวง Want Experrien

คอร์ดเพลง สองรัก

ความคิดเห็นเกี่ยวกับคอร์ดนี้

เวอร์ชั่นทั้งหมดของคอร์ดเพลงนี้

คอร์ดเพลง สองรัก

43 | 11
โดย Zeal club
เมื่อ 16 ปีที่แล้ว

คอร์ดเพลง สองรัก

0 | 0
โดย เก๊กนิยม
เมื่อ 2 ปีที่แล้ว

คอร์ดเพลง สองรัก

0 | 0
โดย เบนซ์
เมื่อ 6 ปีที่แล้ว

คอร์ดเพลง สองรัก

0 | 0
โดย 555
เมื่อ 12 ปีที่แล้ว

คอร์ดเพลง สองรัก

0 | 0
โดย เอ็มสุดหล่อ
เมื่อ 12 ปีที่แล้ว

คอร์ดเพลง สองรัก

0 | 0
โดย ธัช
เมื่อ 12 ปีที่แล้ว

คอร์ดเพลง สองรัก

0 | 0
โดย mon
เมื่อ 12 ปีที่แล้ว

คอร์ดเพลง สองรัก

0 | 0
โดย ทิว
เมื่อ 12 ปีที่แล้ว

คอร์ดเพลง สองรัก

0 | 0
โดย 1
เมื่อ 13 ปีที่แล้ว

คอร์ดเพลง สองรัก

0 | 0
โดย EXALL
เมื่อ 13 ปีที่แล้ว

คอร์ดเพลง สองรัก

0 | 0
โดย ตั้ว
เมื่อ 13 ปีที่แล้ว

คอร์ดเพลง สองรัก

0 | 0
โดย P-เด็กวัด
เมื่อ 14 ปีที่แล้ว

คอร์ดเพลง สองรัก

0 | 0
โดย golf
เมื่อ 14 ปีที่แล้ว

คอร์ดเพลง สองรัก

0 | 0
โดย qw
เมื่อ 14 ปีที่แล้ว

คอร์ดเพลง สองรัก

0 | 0
โดย Want Experrien big (bass)
เมื่อ 14 ปีที่แล้ว

คอร์ดเพลง สองรัก

0 | 0
โดย AByssKaiser
เมื่อ 15 ปีที่แล้ว

คอร์ดเพลง สองรัก

0 | 0
โดย Top Aalborg , Denmark
เมื่อ 15 ปีที่แล้ว

คอร์ดเพลง สองรัก

0 | 0
โดย แห้วคุง I.M.Stroke
เมื่อ 15 ปีที่แล้ว

คอร์ดเพลง สองรัก

0 | 0
โดย เด็กลำปางกัลยาณี
เมื่อ 15 ปีที่แล้ว

คอร์ดเพลง สองรัก

0 | 0
โดย เด็วหาดใหญ่
เมื่อ 15 ปีที่แล้ว

คอร์ดเพลง สองรัก

0 | 0
โดย หำโต
เมื่อ 15 ปีที่แล้ว

คอร์ดเพลง สองรัก

0 | 0
โดย ผู้หวังดี
เมื่อ 15 ปีที่แล้ว

เนื้อเพลง สองรัก - ซีล (Zeal)

rtist : Zeal
Title : สองรัก


แต่ก่อนแต่ไร เข้าใจ ว่าการเป็นคนรัก คือเรียนรู้กันและกัน

แต่ถ้าใครคนหนึ่ง ไม่ใช่ตัวจริง ก็คงต้องจากกัน เหมือนดังเรื่องเธอกับฉัน

Instru : ( 2time )


ทนเจ็บและยอมรับมา เมื่อเธอได้เจอตัวจริง กว่าฉันถึงต้องไป

แต่มาวันนี้ เธอมีเรื่องราวมากมาย ที่ฟังไม่เข้าใจ ยิ่งฟังยิ่งทรมานฉัน


* เธอบอกเหตุผลที่หยุดความรัก ระหว่างฉัน เพราะเธอไม่รู้ว่า จะรักเขามากกว่าไหม

ตัวปลอมอย่างฉัน ก็ยังคงรัก บอกอย่างนี้ได้ไง อย่าปล่อยให้หวัง กันอีกเลย


** สองรัก ฉันรับไม่ไหว เธอมีหนึ่งใจ ให้ไปตั้ง

สองรัก ทั้งเขาและฉัน ฝันไปหรือเธอ

มีใคร ยอมทนบ้างไหม ลืมตาตื่นมาสักทีเถอะ

สองหัวจิต หัวใจอย่างนี้ เลือกซักทีเถอะ เอา ( ซักทาง.... )

Instru : ( 2time )

( ซ้ำ * , ** , ** )

nding : ( 4time )

Cover เพลงสองรัก


ยังไม่มี Cover เพลงนี้

[ ช่วยกันแบ่งปันคลิปเพลงที่คุณเล่นเอง ]

ฟังเพลง สองรัก

อย่าอยู่คนเดียว - ซีล (Zeal)
เมื่อ 14 ปีที่แล้ว
ค้นพบคอร์ด 26 เวอร์ชั่น
หมดชีวิตฉันให้เธอ - ซีล (Zeal) Feat. บัวชมพู ฟอร์ด
เมื่อ 12 ปีที่แล้ว
ค้นพบคอร์ด 1 เวอร์ชั่น
สองรัก - ซีล (Zeal)
เมื่อ 16 ปีที่แล้ว
ค้นพบคอร์ด 28 เวอร์ชั่น
พบเพื่อเพียงผ่าน - ซีล (Zeal)
เมื่อ 14 ปีที่แล้ว
ค้นพบคอร์ด 22 เวอร์ชั่น
แบบไหนที่เธอรัก - ซีล (Zeal)
เมื่อ 10 ปีที่แล้ว
ค้นพบคอร์ด 1 เวอร์ชั่น
ดาว - ซีล(Zeal)
เมื่อ 12 ปีที่แล้ว
ค้นพบคอร์ด 4 เวอร์ชั่น
จูบลา - ซีล (Zeal)
เมื่อ 15 ปีที่แล้ว
ค้นพบคอร์ด 7 เวอร์ชั่น
หยุดรักยังไง - ซีล (ZEAL)
เมื่อ 7 ปีที่แล้ว
ค้นพบคอร์ด 3 เวอร์ชั่น
บุคคลตัวอย่าง - ซีล (Zeal)
เมื่อ 11 ปีที่แล้ว
ค้นพบคอร์ด 1 เวอร์ชั่น
ไม่รู้ทำไม - ซีล
เมื่อ 14 ปีที่แล้ว
ค้นพบคอร์ด 4 เวอร์ชั่น
ใจโทรมๆ - ซีล (Zeal)
เมื่อ 16 ปีที่แล้ว
ค้นพบคอร์ด 5 เวอร์ชั่น
แบบไหนที่เธอจะรัก - ซีล (Zeal)
เมื่อ 10 ปีที่แล้ว
ยังไม่มีคอร์ด
ยังอยู่ตรงนี้ - ซีล (Zeal)
เมื่อ 13 ปีที่แล้ว
ค้นพบคอร์ด 7 เวอร์ชั่น
จากตรงนี้ - ซีล (Zeal)
เมื่อ 15 ปีที่แล้ว
ค้นพบคอร์ด 3 เวอร์ชั่น
ขี้หึง - ซีล (Zeal)
เมื่อ 16 ปีที่แล้ว
ค้นพบคอร์ด 7 เวอร์ชั่น
เงาในหัวใจ (Ost. เงาใจ) - เป๊กซ์ ซีล (Zeal feat. หนูนา หนึ่งธิดา)
เมื่อ 5 ปีที่แล้ว
ค้นพบคอร์ด 1 เวอร์ชั่น
ไมรู้ทำไม - ซีล(Zeal)
เมื่อ 14 ปีที่แล้ว
ค้นพบคอร์ด 6 เวอร์ชั่น
ปล่อย - ซีล (Zeal)
เมื่อ 11 ปีที่แล้ว
ค้นพบคอร์ด 1 เวอร์ชั่น
ไม่ต้องการเห็นใครบางคน(ที่ไม่รักกัน)-ZEAL - ซีล (ZEAL)
เมื่อ 11 ปีที่แล้ว
ยังไม่มีคอร์ด
เธอคือความรัก - ซีล (Zeal)
เมื่อ 14 ปีที่แล้ว
ค้นพบคอร์ด 6 เวอร์ชั่น