คอร์ดเพลง หลงกล - หิน เหล็ก ไฟ

Version 5
แกะโดย Watt
เมื่อ 9 ก.พ.2551,10:09น.
ดู 962 ครั้ง


Intro

1)---------------0------------------------0------------------------ 0---------------------- 0-----------------
2)----------0------0----------------0------0----------------0-------0---------------0------0--------------
3)----8h9---9------9--------6h8---8------8--------4h6---6------6--------2h4---4------4-----------
4)--------------------------------------------------------------------------------------------------------------
5)----7------------------------6------------------------4------------------------2---------------------------
6)--------------------------------------------------------------------------------------------------------------


1)---------------0------------------------0-------------------------0----------------------0---------------------
2)----------0------0----------------0------0-----------------0-------0------------------------------------------
3)----4h6---6------6--------2h4---4------4--------1h2----2--------2--------0h2-------------------------
4)-------------------------------------------------------------------------------------------------------------------
5)----0------------------------2------------------------0---------------------------0-----------------------------
6)-------------------------------------------------------------------------------------------0----------------------

คอร์ดที่ท่านอื่นๆโพสไว้ถูกแล้วครับแต่ต้องวางตำแหน่งให้ถูกกับเนื้อร้องมากกว่านี้ คนที่เล่นใหม่ๆอาจจะยังไม่รู้ว่าต้องวางตำแหน่งอย่างไร ก็ร้องนึกถึงร้อยแก้วและร้อยกรองที่ผู้แต่งจะใช้คำที่สอดคล้องกัน(พ้องรูปหรือพ้องเสียง)ในวรรคต่อไป คอร์ด(ส่วนมาก)ก็จะลงตำแหน่งตรงคำนั้นๆ

คอร์ดเพลง หลงกล

ความคิดเห็นเกี่ยวกับคอร์ดนี้

เนื้อเพลง หลงกล - หิน เหล็ก ไฟ

INTRO :
sus4



คำที่เธอบอก คำที่เธอหลอก

แยกไม่ออกจะเชื่อคำไหน

ใครก็เตือนอยู่ ว่าดูเธอให้แน่ใจ

แต่หูตามันลายแทบไม่รู้ตัว


* เธอใช้เพียงคำพูดไม่กี่คำ

เธอทำให้คนใจง่ายต้องตายใจ

หลงกลเธอแล้วทำไงได้

จะถอนตัวแต่ใจมันไม่ยอมห่าง

หลงกลเธอแล้วคงต้องยอมเธอทุกอย่าง
sus4 sus4
ลองดูอีกที เจ็บนี้ไม่ถึงตาย


แม้จะเคยเจ็บ แม้จะเคยผ่าน

ใช่จะอ่านเธอได้เข้าใจ

เธอยังยืนยัน อย่ามองเธอในแง่ร้าย

เธอไม่ใช่ใครที่น่าหวั่นกลัว


( ซ้ำ * )

SOLO : ( 2 times )

( ซ้ำ * )

SOLO :
sus4

Cover เพลงหลงกล


ยังไม่มี Cover เพลงนี้

[ ช่วยกันแบ่งปันคลิปเพลงที่คุณเล่นเอง ]

ฟังเพลง หลงกล

ศรัทธา - หิน เหล็ก ไฟ
เมื่อ 14 ปีที่แล้ว
ค้นพบคอร์ด 17 เวอร์ชั่น
หลงกล - หิน เหล็ก ไฟ
เมื่อ 15 ปีที่แล้ว
ค้นพบคอร์ด 10 เวอร์ชั่น
ง่ายเกินไป - หิน เหล็ก ไฟ
เมื่อ 14 ปีที่แล้ว
ค้นพบคอร์ด 13 เวอร์ชั่น
ยอม - หิน เหล็ก ไฟ
เมื่อ 13 ปีที่แล้ว
ค้นพบคอร์ด 18 เวอร์ชั่น
นางแมว - หิน เหล็ก ไฟ
เมื่อ 12 ปีที่แล้ว
ค้นพบคอร์ด 1 เวอร์ชั่น
สู้ - หิน เหล็ก ไฟ
เมื่อ 12 ปีที่แล้ว
ค้นพบคอร์ด 2 เวอร์ชั่น
ลมหายใจของกันและกัน - ลูกหิน
เมื่อ 14 ปีที่แล้ว
ยังไม่มีคอร์ด
เพื่อเธอ - หินเหล็กไฟ
เมื่อ 14 ปีที่แล้ว
ค้นพบคอร์ด 6 เวอร์ชั่น
เพื่อนกัน - หิน เหล็ก ไฟ
เมื่อ 11 ปีที่แล้ว
ค้นพบคอร์ด 1 เวอร์ชั่น
คงไม่ต้องบอก - หินกลิ้ง
เมื่อ 11 ปีที่แล้ว
ค้นพบคอร์ด 1 เวอร์ชั่น
หวาดระแวง - หิน เหล็ก ไฟ
เมื่อ 5 ปีที่แล้ว
ค้นพบคอร์ด 1 เวอร์ชั่น
สัญญา - หิน เหล็ก ไฟ
เมื่อ 14 ปีที่แล้ว
ค้นพบคอร์ด 2 เวอร์ชั่น
อภัย - หิน เหล็ก ไฟ
เมื่อ 13 ปีที่แล้ว
ค้นพบคอร์ด 3 เวอร์ชั่น
หมอนสองใบกับใจเหงาๆ - ลูกหิน
เมื่อ 14 ปีที่แล้ว
ค้นพบคอร์ด 2 เวอร์ชั่น
คิดไปเอง - หิน เหล็ก ไฟ
เมื่อ 5 ปีที่แล้ว
ค้นพบคอร์ด 1 เวอร์ชั่น
ทำดีที่สุดแล้ว - โป่ง หิน เหล็ก ไฟ
เมื่อ 4 ปีที่แล้ว
ค้นพบคอร์ด 5 เวอร์ชั่น
พลังรัก - หิน เหล็ก ไฟ
เมื่อ 5 ปีที่แล้ว
ค้นพบคอร์ด 1 เวอร์ชั่น
ไขว้เขว - หิน เหล็ก ไฟ
เมื่อ 5 ปีที่แล้ว
ค้นพบคอร์ด 1 เวอร์ชั่น
เจ็บบ้างก็ดี - หิน เหล็ก ไฟ
เมื่อ 5 ปีที่แล้ว
ค้นพบคอร์ด 1 เวอร์ชั่น
สิบปากว่า (หิน เหล็ก ไฟ) - หิน เหล็ก ไฟ
เมื่อ 5 ปีที่แล้ว
ค้นพบคอร์ด 1 เวอร์ชั่น