คอร์ดเพลง หลอกเพราะรัก - ไฮเปอร์ (Hyper)

Version 10
แกะโดย pop_Ng
เมื่อ 16 ก.พ.2550,19:57น.
ดู 377 ครั้ง



tab ตอนแรก
1 -----------------------------------------------------------------------
2 -----10/12---10/12~--------------------------------------------
3 -------------------------------7/9--7----------7~------------------
4 -------------------------------------------7/9------------------------
5 ------------------------------------------------------------------------
6 ------------------------------------------------------------------------

1--------------------------------10/12--10------------10~--------
2 -----10/12---10/12~--------------------10--12----------------
ท่อนกลาง
----------------------------------------------------------------------------
----------------------------------------------------------------------------
------------------------ 7--7--7--9--7--------------7--7--7--9--------
------------7/9--10---------------------7/9--10-----------------9~--
-----------------------------------------------------------------------------
-----------------------------------------------------------------------------

------------------------8/10----------------------------------------------
---------------------------------13--12--------10-10--10^12~------
------------------- 7-----------------------12-----------------------------
--9--7----7-10-----------------------------------------------------------
-----------------------------------------------------------------------------
-----------------------------------------------------------------------------

1-----------10--10----------10/12~------------------------------------
2-----12--------------12---------------------------------------------------
คอร์ดเพลง หลอกเพราะรัก

ความคิดเห็นเกี่ยวกับคอร์ดนี้

เวอร์ชั่นทั้งหมดของคอร์ดเพลงนี้

คอร์ดเพลง หลอกเพราะรัก

2 | 0
โดย *-*
เมื่อ 14 ปีที่แล้ว

คอร์ดเพลง หลอกเพราะรัก

0 | 0
โดย pop_Ng
เมื่อ 12 ปีที่แล้ว

คอร์ดเพลง หลอกเพราะรัก

0 | 0
โดย pop_Ng
เมื่อ 12 ปีที่แล้ว

คอร์ดเพลง หลอกเพราะรัก

0 | 0
โดย ดรีม
เมื่อ 13 ปีที่แล้ว

คอร์ดเพลง หลอกเพราะรัก

0 | 0
โดย โจ้
เมื่อ 13 ปีที่แล้ว

คอร์ดเพลง หลอกเพราะรัก

0 | 0
โดย J.to (เด็กโง่) Alfa
เมื่อ 13 ปีที่แล้ว

คอร์ดเพลง หลอกเพราะรัก

0 | 0
โดย เด็กแนว
เมื่อ 14 ปีที่แล้ว

คอร์ดเพลง หลอกเพราะรัก

0 | 0
โดย น้ำพุ สุดหล่อ
เมื่อ 14 ปีที่แล้ว

คอร์ดเพลง หลอกเพราะรัก

0 | 0
โดย *-*
เมื่อ 14 ปีที่แล้ว

คอร์ดเพลง หลอกเพราะรัก

0 | 0
โดย arm2t
เมื่อ 14 ปีที่แล้ว

เนื้อเพลง หลอกเพราะรัก - ไฮเปอร์ (Hyper)

หลอกเพราะรัก
rtist : Hyper
Intro
ฉันรู้ว่าเธอคงเจ็บและปวดร้าว ถ้ารู้เรื่องราวทุกอย่างที่ฉันมี
ว่าฉันนั้นมีบางอย่างปิดบังความไม่ดี กับใจที่มีให้เธอนั้น
แม้รู้ว่ามันไม่ถูกเลยสักนิด ถึงแม้ว่ามันจะผิดแต่ก็คิดทำ
ซ่อนรักที่ยังมีอยู่ก่อนเราจะพบกัน หลอกเธออยู่นานจนเชื่อใจ
*กับการหลอกลวงที่ฉันทำ ก็พยามจะห้ามใจ แต่ทำยังไงก็ทำไม่ไหว
ที่ฉันลวงหลอกก็เป็นเพราะรัก จำต้องโกหกว่าไม่มีใคร
เพียงเพราะต้องการหัวใจของเธอเท่านั้น ถ้าฉันยอมบอกว่ามีรักแล้ว
เธอคงไม่รักกัน
**ขอโทษจริง ๆ ที่ทำให้เธอเสียใจ
Solo
เรื่องนี้ฉันจำต้องเก็บเป็นความรับ ถึงแม้ว่ามันลำบากและฝืนใจ
และแม้ซักวันเธอเจอะกับความจริงเมื่อไหร่ ยินดีปวดใจยอมรับมัน
ซ้ำ */**
Solo
ซ้ำ *
แม้รู้ไม่ดียังทำเพราะมันรักเธอ

ใครเก่งๆ ช่วยใส่คอร์ดกับแท็ปก็เจ๋งเลยครับ

Cover เพลงหลอกเพราะรัก


ยังไม่มี Cover เพลงนี้

[ ช่วยกันแบ่งปันคลิปเพลงที่คุณเล่นเอง ]

ฟังเพลง หลอกเพราะรัก

รักแท้ในคืนหลอกลวง - ไฮเปอร์ (Hyper)
เมื่อ 14 ปีที่แล้ว
ค้นพบคอร์ด 7 เวอร์ชั่น
วิทลัยหลายใจ - วิด ไฮเปอร์ (Hyper)
เมื่อ 11 ปีที่แล้ว
ค้นพบคอร์ด 11 เวอร์ชั่น
ข้ารักเอ็ง - ไฮเปอร์ (Hyper)
เมื่อ 14 ปีที่แล้ว
ค้นพบคอร์ด 9 เวอร์ชั่น
เหลวแหลก - ไฮเปอร์ (Hyper)
เมื่อ 14 ปีที่แล้ว
ค้นพบคอร์ด 14 เวอร์ชั่น
นางฟ้าคืนเดียว - ไฮเปอร์ (Hyper)
เมื่อ 11 ปีที่แล้ว
ค้นพบคอร์ด 7 เวอร์ชั่น
วิทยาลัยหลายใจ - ไฮเปอร์ (Hyper)
เมื่อ 11 ปีที่แล้ว
ค้นพบคอร์ด 13 เวอร์ชั่น
อ้อมกอดที่เคยถูกใช้ - ไฮเปอร์ (Hyper)
เมื่อ 11 ปีที่แล้ว
ค้นพบคอร์ด 30 เวอร์ชั่น
มักง่าย หลายใจ หลอกลวง - วิด ไฮเปอร์ (Hyper)
เมื่อ 10 ปีที่แล้ว
ค้นพบคอร์ด 2 เวอร์ชั่น
วิท ลัย หลายใจ - ไฮเปอร์ (HypeR)
เมื่อ 11 ปีที่แล้ว
ค้นพบคอร์ด 5 เวอร์ชั่น
รักฉันเลิกกันดีกว่า - วิด ไฮเปอร์ (Hyper)
เมื่อ 11 ปีที่แล้ว
ค้นพบคอร์ด 1 เวอร์ชั่น
ขวากหนาม - ไฮเปอร์ (Hyper)
เมื่อ 16 ปีที่แล้ว
ค้นพบคอร์ด 4 เวอร์ชั่น
ไม่มั่วแต่ทั่วถึง - วิด ไฮเปอร์ (Hyper)
เมื่อ 8 ปีที่แล้ว
ค้นพบคอร์ด 2 เวอร์ชั่น
ใส่ร้ายป้ายสี - ไฮเปอร์ (Hyper)
เมื่อ 14 ปีที่แล้ว
ค้นพบคอร์ด 20 เวอร์ชั่น
หลอกเพราะรัก - ไฮเปอร์ (Hyper)
เมื่อ 14 ปีที่แล้ว
ค้นพบคอร์ด 10 เวอร์ชั่น
เธอง่ายเอง - ไฮเปอร์ (Hyper)
เมื่อ 15 ปีที่แล้ว
ค้นพบคอร์ด 3 เวอร์ชั่น
รู้เห็นเป็นใจ - ไฮเปอร์ (Hyper)
เมื่อ 15 ปีที่แล้ว
ค้นพบคอร์ด 4 เวอร์ชั่น
รักเเท้ในคื่นหลวกหลง - ไฮเปอร์ (Hyper)
เมื่อ 14 ปีที่แล้ว
ยังไม่มีคอร์ด
ผู้ร้ายคนใหม่ - ไฮเปอร์ (Hyper)
เมื่อ 13 ปีที่แล้ว
ค้นพบคอร์ด 2 เวอร์ชั่น
คืนก่อน - ไฮเปอร์(Hyper)
เมื่อ 11 ปีที่แล้ว
ค้นพบคอร์ด 1 เวอร์ชั่น
เชื่อใจ - ไฮเปอร์ (Hyper)
เมื่อ 14 ปีที่แล้ว
ค้นพบคอร์ด 4 เวอร์ชั่น