คอร์ดเพลง หวาน - เซลล์ ( Cells )

Version 12
แกะโดย แบงค์คุงฮ่ะ
เมื่อ 13 เม.ย.2550,21:31น.
ดู 354 ครั้ง

Intro ชัวๆร์จ้า
------------------------------------|--------------------------------------------
15-15-15-17-17-19-19-19 | 15-15-15-17-17-19-19-19 (3รอบ)
------------------------------------|-----------------------------------------
------------------------------------|-------------------------------------------
------------------------------------|-------------------------------------------
------------------------------------|---------------------------------------------

-----------------|---------------|----------------|--------------------
-----------------|---------------|----------------|--------------------
-----------------|---------------|----------------|--------------------
--4-2--4--7---|-4----2--4---|--4---2---4--|---4---2---4---7--
5---------------|-------------5-|-------------5-|--------------------
-----------------|----------------|----------------|-------------------

-----------------|--------------------------------|---------------|-------------------
-----------------|--------------------------------|---------------|-------------------
------------7---|-----6--7h-6-----------------|---------------|-------------------
--4-2--4-------|--------------9-7--------------|---4-2-4-7-|----4---2----4---
-----------------|-------------------10-9-7-5--|--------------|-----------------5-
-----------------|---------------------------------|--------------|--------------------

----------------------|---------------------------------------|---------------------------------------
----------------------|---------------------------------------|-------------------------------------
----------------------|---------------------------------------|--------------------------------------
---4---2-------------|-7-7-7---7-7-7--7-7-7--7-7-7--|--------------------------------------
-----------------------|-5-5-5---5-5-5--5-5-5--5-5-5--|--7-7-7--7-7-7--7-7-7--7-7-7-
-----------------------|---------------------------------------|--5-5-5--5-5-5--5-5-5--5-5-5-

--------------------------------------|-------------------------------------------
--------------------------------------|-----------------------------------------
--------------------------------------|--------------------------------------
--------------------------------------|--------------------------------------
-9-9-9--9-9-9--9-9-9--9-9-9--|--5-5-5--5-5-5---7-7-7--7-7-7--
-7-7-7--7-7-7--7-7-7--7-7-7--|--3-3-3--3-3-3---5-5-5--5-5-5--

เวรกำรกว่าจะพิมเส็ด
แกะดู ไม่รู้จะตรงป่าว แต่ผมว่าเหมือน 100% เลย 55555555555555555+
คอร์ดเพลง หวาน

ความคิดเห็นเกี่ยวกับคอร์ดนี้

เวอร์ชั่นทั้งหมดของคอร์ดเพลงนี้

คอร์ดเพลง หวาน

7 | 1
โดย แบงค์ วง
เมื่อ 12 ปีที่แล้ว

คอร์ดเพลง หวาน

2 | 0
โดย แบงค์คุงฮ่ะ
เมื่อ 12 ปีที่แล้ว

คอร์ดเพลง หวาน

0 | 0
โดย 123
เมื่อ 11 ปีที่แล้ว

คอร์ดเพลง หวาน

0 | 0
โดย วงซิม
เมื่อ 11 ปีที่แล้ว

คอร์ดเพลง หวาน

0 | 0
โดย อาท Release
เมื่อ 12 ปีที่แล้ว

คอร์ดเพลง หวาน

0 | 0
โดย ป๊อบ
เมื่อ 12 ปีที่แล้ว

คอร์ดเพลง หวาน

0 | 0
โดย new
เมื่อ 12 ปีที่แล้ว

คอร์ดเพลง หวาน

0 | 0
โดย ตูน
เมื่อ 12 ปีที่แล้ว

คอร์ดเพลง หวาน

0 | 0
โดย [LiF Bass >>]
เมื่อ 12 ปีที่แล้ว

คอร์ดเพลง หวาน

0 | 0
โดย Naomi_aoN
เมื่อ 12 ปีที่แล้ว

คอร์ดเพลง หวาน

0 | 0
โดย ร็อคตัวจริง
เมื่อ 12 ปีที่แล้ว

คอร์ดเพลง หวาน

0 | 0
โดย *-*
เมื่อ 12 ปีที่แล้ว

คอร์ดเพลง หวาน

0 | 0
โดย ตะเกียบ
เมื่อ 12 ปีที่แล้ว

คอร์ดเพลง หวาน

0 | 0
โดย AwayG
เมื่อ 12 ปีที่แล้ว

คอร์ดเพลง หวาน

0 | 0
โดย dtr
เมื่อ 12 ปีที่แล้ว

คอร์ดเพลง หวาน

0 | 0
โดย NV Pooh
เมื่อ 12 ปีที่แล้ว

คอร์ดเพลง หวาน

0 | 0
โดย ฟาคับ
เมื่อ 12 ปีที่แล้ว

คอร์ดเพลง หวาน

0 | 0
โดย ฟาคับ
เมื่อ 12 ปีที่แล้ว

คอร์ดเพลง หวาน

0 | 0
โดย ชัวร์กว่า(ชอแก้นิดหน่อย)
เมื่อ 12 ปีที่แล้ว

คอร์ดเพลง หวาน

0 | 0
โดย ชัวร์กว่า
เมื่อ 12 ปีที่แล้ว

คอร์ดเพลง หวาน

0 | 0
โดย กอล์ฟ มือกีต้า Sleeping
เมื่อ 12 ปีที่แล้ว

คอร์ดเพลง หวาน

0 | 0
โดย Pr_PT 3.7
เมื่อ 12 ปีที่แล้ว

คอร์ดเพลง หวาน

0 | 0
โดย killer7
เมื่อ 12 ปีที่แล้ว

คอร์ดเพลง หวาน

0 | 0
โดย โอ๊ป
เมื่อ 12 ปีที่แล้ว

คอร์ดเพลง หวาน

0 | 0
โดย นัทแฟนแพรว
เมื่อ 12 ปีที่แล้ว

คอร์ดเพลง หวาน

0 | 0
โดย ไอซ์
เมื่อ 12 ปีที่แล้ว

คอร์ดเพลง หวาน

0 | 0
โดย แบงค์คุงฮ่ะ
เมื่อ 12 ปีที่แล้ว

คอร์ดเพลง หวาน

0 | 0
โดย KrItzA
เมื่อ 12 ปีที่แล้ว

คอร์ดเพลง หวาน

0 | 0
โดย ๐ตะเกียบ๐
เมื่อ 12 ปีที่แล้ว

คอร์ดเพลง หวาน

0 | 0
โดย ๐ตะเกียบ๐
เมื่อ 12 ปีที่แล้ว

คอร์ดเพลง หวาน

0 | 0
โดย ๐ตะเกียบ๐
เมื่อ 12 ปีที่แล้ว

คอร์ดเพลง หวาน

0 | 0
โดย ๐ตะเกียบ๐
เมื่อ 12 ปีที่แล้ว

คอร์ดเพลง หวาน

0 | 0
โดย ๐ตะเกียบ๐
เมื่อ 12 ปีที่แล้ว

คอร์ดเพลง หวาน

0 | 0
โดย แสนรัก
เมื่อ 12 ปีที่แล้ว

คอร์ดเพลง หวาน

0 | 0
โดย แบงค์คุงฮ่ะ
เมื่อ 12 ปีที่แล้ว

คอร์ดเพลง หวาน

0 | 0
โดย Spidermonky
เมื่อ 12 ปีที่แล้ว

คอร์ดเพลง หวาน

0 | 0
โดย ...
เมื่อ 12 ปีที่แล้ว

เนื้อเพลง หวาน - เซลล์ ( Cells )

สายตาเธอ แน่มาก หวานจนทำให้สั่นไหว หวานจนห้ามใจไม่ได้
รอยยิ้ม ที่ยิ้มมา หวานจนเกินจะทานไหว หวานจนเกินจะขาดใจ
*จึงเกิดคำถามอยุ่ในหัวใจ เลยอยากจะถามให้หายข้องใจ
**มีแฟนแล้วหรือยัง หากว่ายัง อยากจะขอให้เธอช่วยพิจารณา
คนๆนี้เข้าไปอยู่ในหัวใจ สายตาหวานๆ รอยยิ้มหวานๆ
อยากได้คนหวานๆ แบบเธอมาเป็นหวานใจ
เสียงปากที่เอ่ยมาหวานจนทำทำให้หวั่นไหว หวานสะเทือนไปทั้งกาย
ใบหน้าที่เหลียวมาหวานจนยืนอยุ่ไม่ได้ หวานจนเกือบลืมหายใจ
*,**
*,**
อยากได้คนหวานๆ อย่างนี้มาเดินข้างกาย
อยากได้คนหวานๆ แบบเธอมาเป็นคุ่ใจ
อยากได้คนหวานๆ แบบเธอมาเป็นหวานใจ

เพลงแนะนำอีกเพลง นึงครับ โหลดฟังได้จากลิงค์นี้ครับ
http://www.uploadtoday.com/savefile.php?a1087fa8c69763bdce766fcaeea98f1a

Cover เพลงหวาน


ยังไม่มี Cover เพลงนี้

[ ช่วยกันแบ่งปันคลิปเพลงที่คุณเล่นเอง ]

ฟังเพลง หวาน

หวาน - เซลล์ ( Cells )
เมื่อ 12 ปีที่แล้ว
ค้นพบคอร์ด 40 เวอร์ชั่น
โง่เพราะฮัก(รัก) - เซลล์ (Cells)
เมื่อ 13 ปีที่แล้ว
ค้นพบคอร์ด 3 เวอร์ชั่น
ลึก ลึก - เซลล์ (Cells)
เมื่อ 12 ปีที่แล้ว
ค้นพบคอร์ด 23 เวอร์ชั่น
ลึกลึก - เซลล์ ลาว (Cells) = เซลล์วิทยาศาสตร์อะ
เมื่อ 11 ปีที่แล้ว
ค้นพบคอร์ด 5 เวอร์ชั่น
ทุกสิ่งที่มี - เซลล์(cells)
เมื่อ 12 ปีที่แล้ว
ค้นพบคอร์ด 8 เวอร์ชั่น
มีฉันมีเธอ - เดธ ออฟ อะ เซลล์ แมน
เมื่อ 15 ปีที่แล้ว
ค้นพบคอร์ด 2 เวอร์ชั่น
เรือชูชีพ - อวสานเซลล์แมน
เมื่อ 14 ปีที่แล้ว
ค้นพบคอร์ด 4 เวอร์ชั่น
เหม่อ - เดธ ออฟ อะ เซลล์ แมน
เมื่อ 15 ปีที่แล้ว
ค้นพบคอร์ด 2 เวอร์ชั่น
คนสะหวันอยากมีแฟน (เพราะมาก) - เซลล์ ลาว (Cells) = เซลล์วิทยาศาสตร์อะ
เมื่อ 11 ปีที่แล้ว
ค้นพบคอร์ด 2 เวอร์ชั่น
บ่อยากผิดกับความจริง - เซลล์ (Cells)
เมื่อ 12 ปีที่แล้ว
ยังไม่มีคอร์ด
ขอบใจฟ้า - เซลล์ (Cells)
เมื่อ 10 ปีที่แล้ว
ยังไม่มีคอร์ด
ดียังบ่พอ - Cells เซลล์
เมื่อ 11 ปีที่แล้ว
ยังไม่มีคอร์ด
ความฮู้สึกบอก - เซลล์ (Cells)
เมื่อ 5 ปีที่แล้ว
ค้นพบคอร์ด 1 เวอร์ชั่น
เลิกเลิก (ลึกลึก) - เซลล์ (Cells)
เมื่อ 5 ปีที่แล้ว
ค้นพบคอร์ด 1 เวอร์ชั่น