คอร์ดเพลง ห้ามใจไม่ไหว - โปเตโต้ (Potato)

Version 6
แกะโดย มิ้น
เมื่อ 24 ก.ค.2550,12:07น.
ดู 898 ครั้ง

3/------------------------------------------------------------------
4/--7------x-----------7--7----x-----------x--7--x x--7-------
5/--5------x10ครั้ง---5--5----x10ครั้ง--x--5--x-x--5-------
6/--3------x-----------3--3----x-----------x--3--x-x--3-------

2/-------------------------------------------------------7-7-7--10---8-------------------------
3/-----------6--7--6----9--7-----9---6---------7---7-7-7---7----7-------------------------
4/-----------7--7--7----7--7---------------------7----------------------x-x-x-x---7----------
5/------------------------------------------5--7---5----------------------------------5----------
6/---3----------------------------------------------5----------------------------------3----------
เล่นแบบนี้2รอบ

2/-------------------------------------------------------7-7-7--10---8----------------------------
3/-----------6--7--6----9--7-----9---6---------7---7-7-7---7----7----------------------------
4/-----------7--7--7----7--7---------------------7----------------------x-x-x-x---2-------------
5/------------------------------------------5--7---5----------------------------------2-------------
6/---0----------------------------------------------5----------------------------------0-------------

ท่อนจบ
3/----------------------x-x---6---x-x---6-------------------------
4/----5-4---5-4------x-x---7---x-x---7-------------------------
5/--7------7------7---x-x---7---x-x---7-----หลังจากนี้ไปนับอุดสายเอานะขี้เกียจนับ
6------------------------x-x---5---x-x---5------------------------

ลองดูนะ อันนี้อินโทรมันวิจารไห้ด้วยนะค้าบบะบาย
คอร์ดเพลง ห้ามใจไม่ไหว

ความคิดเห็นเกี่ยวกับคอร์ดนี้

เนื้อเพลง ห้ามใจไม่ไหว - โปเตโต้ (Potato)


สายตาที่มอง ใจฉันสั่น มันเต้นแรงจนไม่ไหว ยิ่งมองเท่าไหร่ ก็หลอมละลายไป


ใกล้เธอเท่าไหร่ ใจข้างในกลัวว่าเกินจะทนไหว ไม่เข้าใจ มันตั้งตัวไม่ไหว


อยากจะรั้งหัวใจตัวเองก่อน ก่อนจะเสียมันไปให้ใคร


* * แต่(ก็)ห้ามใจยังไงก็ไม่ไหว ภาพเธอยังวนยังคงร่ำร้องในใจ เรียกเธอทุกที


ก็ห้ามใจยังไงก็ไม่ไหว ให้ตายเป็นตายยังไงต้องขอสักที ก็ต้องลองต้องยอมยกหัวใจให้เธอ


หลายคนเขาบอกจะรักใคร คงต้องรอต้องทนไว้ ยิ่งนานเท่าไหร่ ได้รักสมกันดั่งใจ


ทั้งที่ข้างใน กลัวว่าใครพาหัวใจเธอจากไป รักคงจบให้ฉันคงขาดใจ


หากต้องรั้งหัวใจตัวเองก่อน กลัวจะเสียเธอไปให้ใคร


( * * )


ยกหัวใจให้ไป จะฝืนทนต่อไปก็เท่านั้น..


Solo


ห้ามใจ สักเท่าไหร่ ยิ่งห้ามใจ ยังไงก็ไม่ไหว


ห้ามใจยังไงก็ไม่ไหว ภาพเธอยังวนยังคงร่ำร้องในใจ เรียกเธอทุกที


ก็ห้ามใจยังไงก็ไม่ไหว ให้ตายเป็นตายยังไงต้องขอสักที ก็ต้องลองต้องยอมยกหัวใจให้เธอ


Cover เพลงห้ามใจไม่ไหว


ยังไม่มี Cover เพลงนี้

[ ช่วยกันแบ่งปันคลิปเพลงที่คุณเล่นเอง ]

ฟังเพลง ห้ามใจไม่ไหว

เธอยัง - โปเตโต้ (Potato)
เมื่อ 8 ปีที่แล้ว
ค้นพบคอร์ด 7 เวอร์ชั่น
แพ้ใจ - โปเตโต้ (POTATO)
เมื่อ 7 ปีที่แล้ว
ค้นพบคอร์ด 4 เวอร์ชั่น
แชร์ (Share) - โปเตโต้ (Potato)
เมื่อ 10 ปีที่แล้ว
ค้นพบคอร์ด 1 เวอร์ชั่น
ไม่ให้เธอไป - โปเตโต้ (Potato)
เมื่อ 15 ปีที่แล้ว
ค้นพบคอร์ด 28 เวอร์ชั่น
ปากดี - โปเตโต้ (Potato)
เมื่อ 13 ปีที่แล้ว
ค้นพบคอร์ด 41 เวอร์ชั่น
รักเธอไปทุกวัน - โปเตโต้ (Potato)
เมื่อ 11 ปีที่แล้ว
ค้นพบคอร์ด 13 เวอร์ชั่น
ยิ่งใกล้ยิ่งเจ็บ - โปเตโต้ (Potato)
เมื่อ 14 ปีที่แล้ว
ค้นพบคอร์ด 6 เวอร์ชั่น
ขอบคุณที่รักกัน - โปเตโต้ (Potato)
เมื่อ 13 ปีที่แล้ว
ค้นพบคอร์ด 26 เวอร์ชั่น
ไม่รู้จะอธิบายยังไง - โปเตโต้ (POtATo)
เมื่อ 8 ปีที่แล้ว
ค้นพบคอร์ด 1 เวอร์ชั่น
อารมณ์สีเทา - โปเตโต้(Potato)
เมื่อ 11 ปีที่แล้ว
ค้นพบคอร์ด 10 เวอร์ชั่น
หวังดีเสมอ - โปเตโต้ (Potato)
เมื่อ 13 ปีที่แล้ว
ค้นพบคอร์ด 10 เวอร์ชั่น
ภาษากาย - โปเตโต้ (Potato)
เมื่อ 13 ปีที่แล้ว
ค้นพบคอร์ด 17 เวอร์ชั่น
กล้าพอไหม - โปเตโต้ (Potato)
เมื่อ 2020 ปีที่แล้ว
ค้นพบคอร์ด 20 เวอร์ชั่น
เพียงพอ - โปเตโต้ (Potato)
เมื่อ 12 ปีที่แล้ว
ค้นพบคอร์ด 34 เวอร์ชั่น
ขอบคุณที่รักกัน(Acoustic) - โปเตโต้ (Potato)
เมื่อ 13 ปีที่แล้ว
ค้นพบคอร์ด 17 เวอร์ชั่น
นี่แหละความเสียใจ - โปเตโต้ (Potato)
เมื่อ 12 ปีที่แล้ว
ค้นพบคอร์ด 39 เวอร์ชั่น
ชีวิตที่ขาดเธอ - โปเตโต้(potato)
เมื่อ 12 ปีที่แล้ว
ค้นพบคอร์ด 10 เวอร์ชั่น
ฉันคิดถึงเธอ - โปเตโต้ (POTATO)
เมื่อ 8 ปีที่แล้ว
ค้นพบคอร์ด 1 เวอร์ชั่น
คำตอบของหัวใจ - โปเตโต้ (Potato)
เมื่อ 11 ปีที่แล้ว
ค้นพบคอร์ด 21 เวอร์ชั่น
ทนพิษบาดแผลไม่ไหว - โปเตโต้ (Potato)
เมื่อ 10 ปีที่แล้ว
ค้นพบคอร์ด 6 เวอร์ชั่น