คอร์ดเพลง ห้ามใจ - บอดี้สแลม (Bodyslam)

Version 18
แกะโดย บีม Full-No
เมื่อ 2 พ.ค.2550,13:13น.
ดู 531 ครั้ง



เห็นมีแต่มั่วกันแล้วรำคาญลูกตาว่ะ (ดูนี่เอ้า เอามาแบ่ง ทำบุญ)

Guitar
ท่อนแรก
1/--x-------------------------------------------------------------------------
2/--x-------------------------------------------------------------------------
3/--x--------------------------------------------------------------------------
4/--------------4s5-----------4s5---------4s7---------4s9-----------
5/----------------------------------------------------------------------------
6/------0--0-------------0-0----------0-0---------0-0--------------------

ท่อน2
1/-x---------------------------------------------------------------------------------------
2/-x---------------------------------------------------------------------------------------
3/------5---7---5p4--------5--7--4h5------5--7p5--4h5------5--7-7-7-7-----
4/------5---7---5p4--------5--7--4h5------5--7p5--4h5------5--7-7-7-7-----
5/-x---------------------------------------------------------------------------------------
6/-x---------------------------------------------------------------------------------------

Bass
ท่อนแรก
1/-----------------------------------------------------------------------------------------
2/-----------------------------------------------------------------------------------------
3/------------7s10----------7s10----------7s12---------7s14--------------------
4/-----0-0-------------0-0-------------0-0-----------0-0-----------------------------

ท่อนสอง
1/------------------------------------------------------------------------------------------
2/------------------------------------------------------------------------------------------
3/----------3-3-3-3-3-3-(เล่นไป1ห้อง)-------3-5-5-5-5----------------------------
4/------------------------------------------------------------------------------------------

มีเรื่องเพลงไหนอยากปรึกษาแอดมาคุยกันได้นะ ยินดี
คอร์ดเพลง ห้ามใจ

ความคิดเห็นเกี่ยวกับคอร์ดนี้

เวอร์ชั่นทั้งหมดของคอร์ดเพลงนี้

คอร์ดเพลง ห้ามใจ

0 | 0
โดย เบนซ์
เมื่อ 5 ปีที่แล้ว

คอร์ดเพลง ห้ามใจ

0 | 0
โดย ปิง
เมื่อ 11 ปีที่แล้ว

คอร์ดเพลง ห้ามใจ

0 | 0
โดย cake
เมื่อ 12 ปีที่แล้ว

คอร์ดเพลง ห้ามใจ

0 | 0
โดย เบ้ง
เมื่อ 12 ปีที่แล้ว

คอร์ดเพลง ห้ามใจ

0 | 0
โดย บีม Full-No
เมื่อ 12 ปีที่แล้ว

คอร์ดเพลง ห้ามใจ

0 | 0
โดย CHANN
เมื่อ 12 ปีที่แล้ว

คอร์ดเพลง ห้ามใจ

0 | 0
โดย เบนซ์โว๊ย
เมื่อ 12 ปีที่แล้ว

คอร์ดเพลง ห้ามใจ

0 | 0
โดย tanza_emo
เมื่อ 12 ปีที่แล้ว

คอร์ดเพลง ห้ามใจ

0 | 0
โดย not_Random
เมื่อ 12 ปีที่แล้ว

คอร์ดเพลง ห้ามใจ

0 | 0
โดย r ain
เมื่อ 13 ปีที่แล้ว

คอร์ดเพลง ห้ามใจ

0 | 0
โดย BaLL~RooT SounD/~
เมื่อ 13 ปีที่แล้ว

คอร์ดเพลง ห้ามใจ

0 | 0
โดย BaLL~RooT SounD~
เมื่อ 13 ปีที่แล้ว

คอร์ดเพลง ห้ามใจ

0 | 0
โดย B@LL~RooTSounD ~
เมื่อ 13 ปีที่แล้ว

คอร์ดเพลง ห้ามใจ

0 | 0
โดย Boy 4/3
เมื่อ 14 ปีที่แล้ว

คอร์ดเพลง ห้ามใจ

0 | 0
โดย เจได
เมื่อ 14 ปีที่แล้ว

คอร์ดเพลง ห้ามใจ

0 | 0
โดย DaZe[Lel2M]
เมื่อ 14 ปีที่แล้ว

คอร์ดเพลง ห้ามใจ

0 | 0
โดย ตะแม
เมื่อ 14 ปีที่แล้ว

คอร์ดเพลง ห้ามใจ

0 | 0
โดย วง Zerust
เมื่อ 14 ปีที่แล้ว

คอร์ดเพลง ห้ามใจ

0 | 0
โดย มะกรูด
เมื่อ 14 ปีที่แล้ว

คอร์ดเพลง ห้ามใจ

0 | 0
โดย อู๋ZanZone
เมื่อ 14 ปีที่แล้ว

คอร์ดเพลง ห้ามใจ

0 | 0
โดย อู๋ZanZone
เมื่อ 14 ปีที่แล้ว

คอร์ดเพลง ห้ามใจ

0 | 0
โดย เคนคุง
เมื่อ 14 ปีที่แล้ว

เนื้อเพลง ห้ามใจ - บอดี้สแลม (Bodyslam)

สุดท้าย ต่อให้เหนี่ยวรั้งสักเท่าไหร่ แค่โลกก็ต้องหมุน สุดท้าย วันที่คนรักมาแปรเปลี่ยน จะห้ามอย่างไร
*ในเมื่อทางทุกทางที่มี ในเมื่อคำทุกคำที่ดี มันหมดความหมาย ในเมื่อใจของเธอไม่มี ในเมื่อมันไม่มีวิธี จะทำเท่าไหร่ ในวันนี้มันคงสายไป*
** ไม่มีสิทธิที่จะไปห้ามให้เธอไม่ไป ในเมื่อเธอไม่เหลือใจ ห้ามยังไง ได้แต่บอกและสั่งตัวเองให้ค่อยห้ามใจ ไม่ให้ร่ำร้อง**
จากนี้โลกก็คงหมุนไปทางเก่า แต่ไม่มีเราแล้ว สุดท้าย คนเราคงพบเพื่อลาจาก แค่นี้ใช่ไหม * **
รัก รัก รัก ก็เท่านั้น รุ้ รุ้ สุดทางสุดท้ายไม่เหลื่อใคร รัก รัก รัก จบตรงนี้ รุ้ รุ้ แต่จะให้ฉันทำอย่างไร **
เจ็บเท่าไร ก็ต้องเก็บไว้ วันที่เธอนั้นล่ำลา วันที่เธอทึ้งฉันไป ได้แต่บอกและสั่งตัวเองให้ค่อยห้ามใจ เมื่อไม่เหลือใคร จะไม่เสียใจ จะไม่ร่ำร้อง

Cover เพลงห้ามใจ


ยังไม่มี Cover เพลงนี้

[ ช่วยกันแบ่งปันคลิปเพลงที่คุณเล่นเอง ]

ฟังเพลง ห้ามใจ

งมงาย - บอดี้สแลม (Bodyslam)
เมื่อ 16 ปีที่แล้ว
ค้นพบคอร์ด 23 เวอร์ชั่น
แสงสุดท้าย - บอดี้สแลม (bodyslam)
เมื่อ 9 ปีที่แล้ว
ค้นพบคอร์ด 3 เวอร์ชั่น
ความรัก - บอดี้สแลม (Bodyslam)
เมื่อ 9 ปีที่แล้ว
ค้นพบคอร์ด 13 เวอร์ชั่น
เปราะบาง - บอดี้สแลม (bodyslam)
เมื่อ 9 ปีที่แล้ว
ค้นพบคอร์ด 5 เวอร์ชั่น
ปลายทาง - บอดี้สแลม (Bodyslam)
เมื่อ 16 ปีที่แล้ว
ค้นพบคอร์ด 27 เวอร์ชั่น
สักวันฉันจะดีพอ - บอดี้สแลม (Bodyslam)
เมื่อ 14 ปีที่แล้ว
ค้นพบคอร์ด 14 เวอร์ชั่น
อกหัก - บอดี้สแลม (Bodyslam)
เมื่อ 12 ปีที่แล้ว
ค้นพบคอร์ด 63 เวอร์ชั่น
ความรักทำให้คนตาบอด - บอดี้สแลม (Bodyslam)
เมื่อ 14 ปีที่แล้ว
ค้นพบคอร์ด 45 เวอร์ชั่น
ขอบฟ้า - บอดี้สแลม (Bodyslam)
เมื่อ 14 ปีที่แล้ว
ค้นพบคอร์ด 29 เวอร์ชั่น
คิดฮอด - บอดี้สแลม (bodyslam)
เมื่อ 9 ปีที่แล้ว
ค้นพบคอร์ด 1 เวอร์ชั่น
ความเชื่อ - บอดี้สแลม (Bodyslam)
เมื่อ 14 ปีที่แล้ว
ค้นพบคอร์ด 23 เวอร์ชั่น
พูดในใจ - บอดี้สแลม (Bodyslam)
เมื่อ 14 ปีที่แล้ว
ค้นพบคอร์ด 13 เวอร์ชั่น
อากาศ - บอดี้สแลม (Bodyslam)
เมื่อ 15 ปีที่แล้ว
ค้นพบคอร์ด 24 เวอร์ชั่น
คนที่ถูกรัก - บอดี้สแลม (BodySlam)
เมื่อ 14 ปีที่แล้ว
ค้นพบคอร์ด 16 เวอร์ชั่น
เจ็บจนวันนี้ - บอดี้สแลม (Bodyslam)
เมื่อ 14 ปีที่แล้ว
ค้นพบคอร์ด 23 เวอร์ชั่น
นาฬิกาตาย - บอดี้สแลม (Bodyslam)
เมื่อ 12 ปีที่แล้ว
ค้นพบคอร์ด 23 เวอร์ชั่น
ยาพิษ - บอดี้สแลม (BodySlam)
เมื่อ 12 ปีที่แล้ว
ค้นพบคอร์ด 28 เวอร์ชั่น
หวั่นไหว - บอดี้สแลม (Bodyslam)
เมื่อ 15 ปีที่แล้ว
ค้นพบคอร์ด 30 เวอร์ชั่น
ห้ามใจ - บอดี้สแลม (Bodyslam)
เมื่อ 14 ปีที่แล้ว
ค้นพบคอร์ด 24 เวอร์ชั่น
Sticker (สติ๊กเกอร์) - บอดี้สแลม (BODYSLAM)
เมื่อ 9 ปีที่แล้ว
ค้นพบคอร์ด 2 เวอร์ชั่น