คอร์ดเพลง อินโทรนางฟ้าคนเดิม - แคลช (Clash)

Version 1
แกะโดย toto
เมื่อ 22 ม.ค.2550,14:24น.
ดู 454 ครั้ง


สุดยอดวุ่นวาย 203.209.121.68 [ วันพุธ ที่ 4 ตุลาคม 2549 เวลา 04:16 น. ] [ x ] ผู้ตอบคนที่ 12
Intro
G
1>--7--------------7----------------7---------------7----8----7------
2>-------------8---------------8--------------8---------------------8
3>--------7-------------7---------------7-----------0-----------------
4>------------------------------------------------------------------------
5>--10-----------------------------------------------------------------
6>-----------------------------------------------------------------------
D
1>------------------------7-------------7--------------------------------5------7------5--------------
2>--10---------10---------------------------10-----------10--------------------------------7-
3>---------7--------------------7--------------------7-----------------------------------------------
4>--0---------------------------------------------------------------------0-----------------------
5>---------------------------------------------------------------------------------------------------
6>-----------------------------------------------------------------------------------------------------
Em7
1>---3---------------------5----------5-----3------------3-----5-3-2
2>-------------------3------------------------------3--------------------
3>-----------4-----------------4-------------------------------------------
4>------------------------------------------------------------------------
5>---------------------------------------------------------------------------
6>---0---------------------------------------------------------------------
Cadd9 D
1>-----3--------------------5--------------------------7------------------5---3---2-
2>-------------------3---------------3------------------------------7-----------------
3>------------5--------------------------------5-------------7---------------------
4>-------------------------------------------------------0------------------0--------
5>-----3------------------------------------------------------------------------------
6>-----------------------------------------------------------------------------------
G
1>-----3---------------------5---------------------------3-----------------
2>-------------------3--------------------------3--------3-----(/)------------
3>-----------4------------------------4------------------4-----------------
4>---------------------------------------------------------------------------
5>----------------------------------------------------------------------------
6>-----3--------------------------------------------------3-----------------
ฝึกให้เก่งนะคุณเนรตเนี่ยคอร์ดของจริงพี่แฮ็คสอนมากับมือเนี่ยแหละIntroของเพลงนางฟ้าคนเดิม


((ขอคอร์ดกีต้าร์))
คอร์ดเพลง อินโทรนางฟ้าคนเดิม

ความคิดเห็นเกี่ยวกับคอร์ดนี้

เวอร์ชั่นทั้งหมดของคอร์ดเพลงนี้

เนื้อเพลง อินโทรนางฟ้าคนเดิม - แคลช (Clash)

จะเล่นที่ผมโพลสให้เหมือนต้องเล่นกีตาร์2คนนะครับกีตาร์
Intro
กีตาร์ตัวที่1(พี่แฮงค์)

1+6h7p
2+
3+

1+
2+
3+

กีตาร์ตัวที่2(พี่พล)

1+
2+
3+

1+
2+
3+

1+
2+
3+
4+
5+
6+

จบอินโทร
เพลงนี้เวลาเริ่มอินโทรให้เริ่มพร้อมกันทั้ง2คนนะครับ
คนที่เล่นกีตาร์1ควรเล่นให้เสียงดังหน่อย
คนเล่นกีตาร์ที่2ควรเล่นให้เสียงเบาหน่อย

ส่วนตอนร้องเพลงก็เล่นคล้ายๆอินโทรนะครับเล่น3สายล่างควรเล่นพร้อมเพลงนะครับ
*อินโทรพี่แฮงค์ผมไม่ได้แกะเองนะครับลอกเค้ามา*

Cover เพลงอินโทรนางฟ้าคนเดิม


ยังไม่มี Cover เพลงนี้

[ ช่วยกันแบ่งปันคลิปเพลงที่คุณเล่นเอง ]

ฟังเพลง อินโทรนางฟ้าคนเดิม

เพื่อนไม่ทิ้งกัน - แคลช (Clash)
เมื่อ 15 ปีที่แล้ว
ค้นพบคอร์ด 10 เวอร์ชั่น
ฝากความยินดี - แคลช (Clash)
เมื่อ 9 ปีที่แล้ว
ค้นพบคอร์ด 3 เวอร์ชั่น
นางฟ้าคนเดิม - แคลช (Clash)
เมื่อ 13 ปีที่แล้ว
ค้นพบคอร์ด 41 เวอร์ชั่น
วังวน - แคลช (Clash)
เมื่อ 13 ปีที่แล้ว
ค้นพบคอร์ด 19 เวอร์ชั่น
เพลงสุดท้าย - แคลช (clash)
เมื่อ 9 ปีที่แล้ว
ค้นพบคอร์ด 1 เวอร์ชั่น
ไฟรัก - แคลช (Clash)
เมื่อ 14 ปีที่แล้ว
ค้นพบคอร์ด 32 เวอร์ชั่น
รอ - แคลช (Clash)
เมื่อ 13 ปีที่แล้ว
ค้นพบคอร์ด 29 เวอร์ชั่น
ขอเจ็บแทน - แคลช (Clash)
เมื่อ 13 ปีที่แล้ว
ค้นพบคอร์ด 33 เวอร์ชั่น
เธอจะอยู่กับฉันตลอดไป - แคลช (Clash)
เมื่อ 16 ปีที่แล้ว
ค้นพบคอร์ด 24 เวอร์ชั่น
ซบที่อกฉัน - แคลช (Clash)
เมื่อ 14 ปีที่แล้ว
ค้นพบคอร์ด 40 เวอร์ชั่น
กอด - แคลช (Clash)
เมื่อ 16 ปีที่แล้ว
ค้นพบคอร์ด 12 เวอร์ชั่น
เกินคำว่ารัก - แคลช clash
เมื่อ 12 ปีที่แล้ว
ค้นพบคอร์ด 17 เวอร์ชั่น
รับได้ทุกอย่าง - แคลช (Clash)
เมื่อ 16 ปีที่แล้ว
ค้นพบคอร์ด 15 เวอร์ชั่น
อ้างว้าง - แคลช (Clash)
เมื่อ 14 ปีที่แล้ว
ค้นพบคอร์ด 4 เวอร์ชั่น
ปฏิเสธไม่ได้ว่ารักเธอ - แคล (Kal) Feat. แบงค์ แคลช (Clash)
เมื่อ 10 ปีที่แล้ว
ค้นพบคอร์ด 1 เวอร์ชั่น
ขอเช็ดน้ำตา - แคลช (Clash)
เมื่อ 16 ปีที่แล้ว
ค้นพบคอร์ด 13 เวอร์ชั่น
ทิ้งรักลงแม่น้ำ - แคลช ((Clash) Pack4)
เมื่อ 14 ปีที่แล้ว
ค้นพบคอร์ด 8 เวอร์ชั่น
เพื่อเธอตลอดไป - แบงค์ แคลช
เมื่อ 15 ปีที่แล้ว
ค้นพบคอร์ด 15 เวอร์ชั่น
ผีเสื้อ - แคลช (Clash)
เมื่อ 14 ปีที่แล้ว
ค้นพบคอร์ด 31 เวอร์ชั่น
โรคประจำตัว - แคลช (Clash)
เมื่อ 15 ปีที่แล้ว
ค้นพบคอร์ด 22 เวอร์ชั่น