คอร์ดเพลง เกาะร้าง ห่างรัก - แทตทู คัลเลอร์ (Tattoo Colour)

Version 3
แกะโดย m_tattoo
เมื่อ 23 พ.ย.2550,01:50น.
ดู 776 ครั้ง


Solo
1//-----------------------------------------------------------------------------------------------------------2//----------------------------------------------------------------------------------------------------6-8---3//---2-3--5-5-----5^--3 2 3-----2--3-3-----7^--5 3 5--------5--7--7^----5-------5--7--------4//----------------3----------------5-----------5---------------5h7-------------------7--5--------------5//-----------------------------------------------------------------------------------------------------------6//----------------------------------------------------------------------------------------------------------

1//-----------------8----------------------------------------------------------------------------16-14-----2//-----6-8-8-8^--8-8-6-3--6^-5----------------------------------6----6-8-8^-6---8----16-14--3//-------------------------------------5-5--------5-7-7^-5----5--7----7----------------------
4//--------------------------------------------5h7-------------7-------------------------------------------5//-----------------------------------------------------------------------------------------------------------
6//-----------------------------------------------------------------------------------------------------------

1/-------------------------------------------------------------------------------------------------
2/-----------------------------------------------------10-11-13---12-------------------------
3/---------15-13------13-15^--15-13-----13-----------------------10--------10--------
4/-------------------15---------------------15---------------------------------12--------------
5/-------------------------------------------------------------------------------------------------
6/-------------------------------------------------------------------------------------------------
คอร์ดเพลง เกาะร้าง ห่างรัก

ความคิดเห็นเกี่ยวกับคอร์ดนี้

เนื้อเพลง เกาะร้าง ห่างรัก - แทตทู คัลเลอร์ (Tattoo Colour)

อยู่กลางทะเล มีน้ำกับทราย
มองไปทางใด ไม่เคยเห็นใครมา
ติดเกาะอย่างนี้มานาน บางวันลงน้ำหาปลา
จุดไฟต้องหา ไม้มาขุดกัน

ตกตอนกลางคืน ยิ่งหนาวจับใจ
อยู่ริมกองไฟ ข่มใจให้พักผ่อน
บางวันฉันเหงาฉันเพลีย อยากจะจิบเบียร์ก่อนนอน
บางวันฉันร้อน วิ่งลงหาดทราย

* เกาะร้างเกาะนี้ฉันอยู่ลำพัง มานานเกินใจทนไหว
รอเรือซักลำมาพาฉันแล่นออกไป

* *แต่จะมีใครหรือเปล่า ที่เห็นว่ายังมีเงาน่าสงสัย
เกาะร้างยังมีคนอยุ่ยังหายใจ และยังมีฉันอยู่ตรงนี้
บนเกาะที่น่าเบื่อ ก็หวังว่าจะมีเรือซักลำมั๊ย
ที่รู้และพาฉันออกไปให้ได้ ก็ยังจะเฝ้ารอต่อไป

Solo

(*,**)

บนเกาะที่น่าเบื่อ ไม่เห็นซักลำเลยเรืออยู่ที่ไหน
ชีวิตฉันคงจะออกไปไม่ได้ ต้องอยู่อย่างนี้ตลอดไป
ต้องอยุ่อย่างงี้ตลอดไป ต้องอยุ่อย่างนี้อีกนานมั๊ย
โว โอ โอ...

Cover เพลงเกาะร้าง ห่างรัก


ยังไม่มี Cover เพลงนี้

[ ช่วยกันแบ่งปันคลิปเพลงที่คุณเล่นเอง ]

ฟังเพลง เกาะร้าง ห่างรัก

ฟ้า - แทตทู คัลเลอร์ (Tattoo Colour)
เมื่อ 12 ปีที่แล้ว
ค้นพบคอร์ด 36 เวอร์ชั่น
จำทำไม - แทตทู คัลเลอร์ (Tattoo colour)
เมื่อ 11 ปีที่แล้ว
ค้นพบคอร์ด 13 เวอร์ชั่น
โกหก - แทตทู คัลเลอร์ (Tattoo Colour)
เมื่อ 11 ปีที่แล้ว
ค้นพบคอร์ด 2 เวอร์ชั่น
ขาหมู - แทตทู คัลเลอร์ (Tattoo colour)
เมื่อ 11 ปีที่แล้ว
ค้นพบคอร์ด 8 เวอร์ชั่น
ฉันรักเธอ - แทตทู คัลเลอร์ (Tattoo Colour)
เมื่อ 11 ปีที่แล้ว
ค้นพบคอร์ด 5 เวอร์ชั่น
โอกาสสุดท้าย - แทตทู คัลเลอร์ (Tattoo Colour)
เมื่อ 11 ปีที่แล้ว
ค้นพบคอร์ด 1 เวอร์ชั่น
Cindellera - แทตทู คัลเลอร์ (Tattoo Colour)
เมื่อ 11 ปีที่แล้ว
ยังไม่มีคอร์ด
เกาะร้าง ห่างรัก - แทตทู คัลเลอร์ (Tattoo Colour)
เมื่อ 12 ปีที่แล้ว
ค้นพบคอร์ด 6 เวอร์ชั่น
เปิดเพลงไหน เปิดเมื่อไหร่ ก็ยังสวยงาม - แทตทู คัลเลอร์ (Tattoo Colour)
เมื่อ 11 ปีที่แล้ว
ค้นพบคอร์ด 1 เวอร์ชั่น
Cinderella - แทตทู คัลเลอร์ (Tattoo Colour)
เมื่อ 10 ปีที่แล้ว
ยังไม่มีคอร์ด
เพลงสุดท้าย - แทตทู คัลเลอร์(tattoo colour)
เมื่อ 11 ปีที่แล้ว
ยังไม่มีคอร์ด
ฝากที - แทตทู คัลเลอร์ (Tattoo Colour)
เมื่อ 12 ปีที่แล้ว
ค้นพบคอร์ด 25 เวอร์ชั่น
กลัว - แทตทู คัลเลอร์ (Tatto Colour)
เมื่อ 12 ปีที่แล้ว
ค้นพบคอร์ด 6 เวอร์ชั่น
เคียงข้างคุณ - แทตทู คัลเลอร์ (Tattoo Colour)
เมื่อ 11 ปีที่แล้ว
ยังไม่มีคอร์ด
อากาศร้อนๆ - แทตทู คัลเลอร์ (Tattoo Colour)
เมื่อ 12 ปีที่แล้ว
ค้นพบคอร์ด 2 เวอร์ชั่น
นกน้อย - แทตทู คัลเลอร์ (Tattoo Colour)
เมื่อ 11 ปีที่แล้ว
ยังไม่มีคอร์ด
แค่นั้นจริงๆ - แทตทู คัลเลอร์ (Tattoo Color)
เมื่อ 9 ปีที่แล้ว
ยังไม่มีคอร์ด
แทตทู คัลเลอร์ (Tattoo Colour) Bonus Track - แทตทู คัลเลอร์ (Tattoo Colour)
เมื่อ 12 ปีที่แล้ว
ค้นพบคอร์ด 8 เวอร์ชั่น
like - แทตทู คัลเลอร์ (Tatto Colour)
เมื่อ 12 ปีที่แล้ว
ค้นพบคอร์ด 1 เวอร์ชั่น
รู้มั๊ยจ๊ะ - แทตทู คัลเลอร์ (Tattoo Colour)
เมื่อ 12 ปีที่แล้ว
ค้นพบคอร์ด 2 เวอร์ชั่น