คอร์ดเพลง เจ็บนี้มันลึก - กะลา

Version 9
แกะโดย b@((
เมื่อ 22 ก.ค.2548,15:39น.
ดู 464 ครั้ง
ผมลงแล้วมันวางตำแหน่งผิดนิดหน่อย เลยลองเรียงใหม่ดู คราวนี้ชัวครับ

SoLo เพลง เจ็บนี้มันลึกของ กะลา สามัญครับผม แกะเท่าที่ได้ยินอ่ะครับคิดว่าน่าจะตรงใครมีดีกว่านี้ก็เอามาลงได้ครับผม

BY b(( Absolute
E------------------------------------------------------------------------------------------------------------------
B----------------------------------------------------------------------------------------------------------------
G---------------------------------------------------- 5^--------------------8^------------------10^-----------------
D-----12--12-12---10------12---10---7---8--7--8-----------8--8--8--5--------7--10-12-12--------------------------
A-----12--12-12---10------12---10---7---8--7--8-----------8--8--8--5--------5--8--10-10--------------------------
E-----10--10-10----8------10---8----5---6--5--6-----------6--6--0--3-----------------------------------------------

E--------------------------------------------------------------------------------------------------------------------------------------------
B--------------------------------------------------11-----------------11-----------------------------------------------------------------------11--11^--------11-11^-11-------
G---10^-10---------------------------------------------------10--------10/12------17-17/12--12/15-15/10-10/12---12------ 12------------------
D------------8--10/12---10-8---------------------10/12----------------------------------------------------------------------------------------
A------------------------------8-10-8-10----------------------------------------------------------------------------------------------------
E-------------------------------------------------------------------------------------------------------------------------------------------

E--------------------------------------------------------------------------------------------------------
B---------------------------------------------11---------------------------------------13/11--12------------------
G--------10^-10--------------------10^------10^----------------------------------------------------------
D----12-----------10^-10-8---------------------10^--8------8---10--10^--------------------------------
A-----------------------------------8--------------------------10---------------------------------------------
E-------------------------------------------------------------------------------------------------------

E-----------------------------------------------------------------------------------------------------------------------
B-----------------------------------------------------------------------------------------------------15--16---18------------------------------
G----------------------------------------------------------------------------12-14/15-15/17-------------------------------------------
D-------------------------------------------8-10-8-10-10/12--12/15-----------------------------------------------------------
A------------8-8-----8--10-8----8-10------------------------------------------------------------------------------------
E----8-10-------10-----------------------------------------------------------------------------------------------------
คอร์ดเพลง เจ็บนี้มันลึก

ความคิดเห็นเกี่ยวกับคอร์ดนี้

เวอร์ชั่นทั้งหมดของคอร์ดเพลงนี้

คอร์ดเพลง เจ็บนี้มันลึก

0 | 0
โดย ม็อบนะครับ
เมื่อ 12 ปีที่แล้ว

คอร์ดเพลง เจ็บนี้มันลึก

0 | 0
โดย เรกกะ
เมื่อ 12 ปีที่แล้ว

คอร์ดเพลง เจ็บนี้มันลึก

0 | 0
โดย เรกกะ
เมื่อ 12 ปีที่แล้ว

คอร์ดเพลง เจ็บนี้มันลึก

0 | 0
โดย petualant
เมื่อ 13 ปีที่แล้ว

คอร์ดเพลง เจ็บนี้มันลึก

0 | 0
โดย PickazaA
เมื่อ 13 ปีที่แล้ว

คอร์ดเพลง เจ็บนี้มันลึก

0 | 0
โดย b@((
เมื่อ 13 ปีที่แล้ว

คอร์ดเพลง เจ็บนี้มันลึก

0 | 0
โดย b@((
เมื่อ 13 ปีที่แล้ว

คอร์ดเพลง เจ็บนี้มันลึก

0 | 0
โดย เดีย
เมื่อ 13 ปีที่แล้ว

คอร์ดเพลง เจ็บนี้มันลึก

0 | 0
โดย ยูเรนัส
เมื่อ 13 ปีที่แล้ว

คอร์ดเพลง เจ็บนี้มันลึก

0 | 0
โดย aek_Hey!!_nGuN....
เมื่อ 13 ปีที่แล้ว

คอร์ดเพลง เจ็บนี้มันลึก

0 | 0
โดย 4xzz
เมื่อ 13 ปีที่แล้ว

คอร์ดเพลง เจ็บนี้มันลึก

0 | 0
โดย 4xzz
เมื่อ 13 ปีที่แล้ว

คอร์ดเพลง เจ็บนี้มันลึก

0 | 0
โดย 4xzz
เมื่อ 13 ปีที่แล้ว

คอร์ดเพลง เจ็บนี้มันลึก

0 | 0
โดย 4xzz
เมื่อ 13 ปีที่แล้ว

เนื้อเพลง เจ็บนี้มันลึก - กะลา

นี่หนะหรือคนดีที่ฉันไว้ใจ นี่ใช่ไม๊คือคนที่เคยรักกัน
นี่หนะหรือคือคนที่ฮันให้ความสำคัญ แต่ว่ามันไม่มีความหมาย

*เมื่อวันที่เทอบอกกับฉัน วันที่เทอปันใจ
เมื่อหัวใจต้องการจะไปจากฉัน รักของเราจากนี้
ไม่เหลือความสำคัญ รักต้องพังสลายด้วยมือของเทอ

**เจ็บนี้มันลึกๆลงกลางใจ ซาบซึ้งเหลือเกินที่ให้ไว้
แลกกับความจริงใจที่ฉันมี นี่หรือความรักความหวังดี
ตอบแทนฉันวันนี้ ให้กันอย่างสาสมใจ

( *, **, ** )

ตอบแทนฉันวันนี้ ให้กันอย่างสาสมใจ

Cover เพลงเจ็บนี้มันลึก


ยังไม่มี Cover เพลงนี้

[ ช่วยกันแบ่งปันคลิปเพลงที่คุณเล่นเอง ]

ฟังเพลง เจ็บนี้มันลึก

ไม่เห็นฝุ่น - กะลา (KALA)
เมื่อ 9 ปีที่แล้ว
ค้นพบคอร์ด 3 เวอร์ชั่น
เธอเป็นแฟนฉันแล้ว - กะลา
เมื่อ 15 ปีที่แล้ว
ค้นพบคอร์ด 16 เวอร์ชั่น
ใจเรายังตรงกันอยู่ไหม - กะลา (Kala)
เมื่อ 7 ปีที่แล้ว
ค้นพบคอร์ด 4 เวอร์ชั่น
ขอเป็นตัวเลือก - กะลา
เมื่อ 15 ปีที่แล้ว
ค้นพบคอร์ด 9 เวอร์ชั่น
บอกสักคำ - กะลา
เมื่อ 15 ปีที่แล้ว
ค้นพบคอร์ด 15 เวอร์ชั่น
ถ้าเธอหลายใจ - กะลา
เมื่อ 13 ปีที่แล้ว
ค้นพบคอร์ด 10 เวอร์ชั่น
รอ - กะลา
เมื่อ 15 ปีที่แล้ว
ค้นพบคอร์ด 12 เวอร์ชั่น
เป็นแฟนกันตั้งแต่เมื่อไหร่ - กะลา
เมื่อ 12 ปีที่แล้ว
ค้นพบคอร์ด 7 เวอร์ชั่น
ทำใจให้ชิน - กะลา (Kala)
เมื่อ 9 ปีที่แล้ว
ค้นพบคอร์ด 1 เวอร์ชั่น
หยุด - กะลา (KALA)
เมื่อ 9 ปีที่แล้ว
ยังไม่มีคอร์ด
กะลา (ใช่ไหม) - กะลา KALA
เมื่อ 12 ปีที่แล้ว
ค้นพบคอร์ด 13 เวอร์ชั่น
ใช่ฉันหรือปล่าว - กะลา
เมื่อ 12 ปีที่แล้ว
ค้นพบคอร์ด 13 เวอร์ชั่น
เจ็บนี้มันลึก - กะลา
เมื่อ 13 ปีที่แล้ว
ค้นพบคอร์ด 16 เวอร์ชั่น
ปิดตา - กะลา
เมื่อ 13 ปีที่แล้ว
ค้นพบคอร์ด 11 เวอร์ชั่น
ใช่ฉันหรือเปล่า - กะลา
เมื่อ 12 ปีที่แล้ว
ค้นพบคอร์ด 32 เวอร์ชั่น
4 นาที - กะลา
เมื่อ 11 ปีที่แล้ว
ค้นพบคอร์ด 18 เวอร์ชั่น
นาฬิกาของคนรักกัน - กะลา (KALA)
เมื่อ 7 ปีที่แล้ว
ค้นพบคอร์ด 2 เวอร์ชั่น
ขอแค่ได้ฝัน - กะลา
เมื่อ 12 ปีที่แล้ว
ค้นพบคอร์ด 4 เวอร์ชั่น
ไม่มีทาง - กะลา
เมื่อ 14 ปีที่แล้ว
ค้นพบคอร์ด 7 เวอร์ชั่น
คนดีที่เย็นชา - กะลา (Kala)
เมื่อ 11 ปีที่แล้ว
ค้นพบคอร์ด 4 เวอร์ชั่น