คอร์ดเพลง เธอเป็นแฟนฉันแล้ว - กะลา

Version 13
แกะโดย นุ๊บนิบ 3/8 รักมิว
เมื่อ 25 ก.ค.2550,19:41น.
ดู 2418 ครั้ง



แก้solo1
1-------------------------------------12----------------------------------------------------12--------------
2-10-12-13-15--12-13-15-15-----------------------------------------------12-15------------------
3-----------------------------------------14/16-16/14-14/16--10/12-14------------14s--14-12
4--------------------------------------------------------------------------------------------------------------
5--------------------------------------------------------------------------------------------------------------
6--------------------------------------------------------------------------------------------------------------
ต่อจากsolo1 ท่อนนี้จะเล่นเร็ว
1-------------------------------------------------------------------------------------------------------------
2----------------------12--15------------------------------------------------------------------------------
3--------------12-14---------------------------------------------------------------------------------------
4-----12-14-------------------------------------------------------------------------------------------------
5-14---------------------------------------------------------------------------------------------------------
6--------------------------------------------------------------------------------------------------------------

ท่อนจบ
1----------12----15---------------------------------------------------------------------------------------
2------13---------------------------------------------------------------------------------------------------
3--12-------------------------------------------------------------------------------------------------------
คอร์ดเพลง เธอเป็นแฟนฉันแล้ว

ความคิดเห็นเกี่ยวกับคอร์ดนี้

เวอร์ชั่นทั้งหมดของคอร์ดเพลงนี้

คอร์ดเพลง เธอเป็นแฟนฉันแล้ว

97 | 13
โดย NV pooh
เมื่อ 16 ปีที่แล้ว

คอร์ดเพลง เธอเป็นแฟนฉันแล้ว

1 | 0
โดย นิก กีต้าโซโล่
เมื่อ 11 ปีที่แล้ว

คอร์ดเพลง เธอเป็นแฟนฉันแล้ว

0 | 0
โดย นุ๊บนิบ 3/8 รักมิว
เมื่อ 12 ปีที่แล้ว

คอร์ดเพลง เธอเป็นแฟนฉันแล้ว

0 | 0
โดย nooker
เมื่อ 12 ปีที่แล้ว

คอร์ดเพลง เธอเป็นแฟนฉันแล้ว

0 | 0
โดย 11
เมื่อ 13 ปีที่แล้ว

คอร์ดเพลง เธอเป็นแฟนฉันแล้ว

0 | 0
โดย j
เมื่อ 13 ปีที่แล้ว

คอร์ดเพลง เธอเป็นแฟนฉันแล้ว

0 | 0
โดย ซัน จันทบุรี
เมื่อ 13 ปีที่แล้ว

คอร์ดเพลง เธอเป็นแฟนฉันแล้ว

0 | 0
โดย ๛หน่วยสวาทพิฆาตเทพ๛
เมื่อ 15 ปีที่แล้ว

คอร์ดเพลง เธอเป็นแฟนฉันแล้ว

0 | 0
โดย ZipPo
เมื่อ 15 ปีที่แล้ว

คอร์ดเพลง เธอเป็นแฟนฉันแล้ว

0 | 0
โดย [pong]
เมื่อ 15 ปีที่แล้ว

เนื้อเพลง เธอเป็นแฟนฉันแล้ว - กะลา

เธอเป็นแฟนฉันแล้ว
rtist : กะลา

Intro :


ตะวันหลับตา ท้องฟ้าก็ทาสีดำ

แต่สิ่งที่ฉันต้องทำ เป็นประจำ.. .คือคิดถึงเธอ

ใจฉันเหมือนนก คอยบินไปนอกหน้าต่างเสมอ

อยากบินไปบ้านเธอ ฮือ......


เธอคงหลับแล้ว ไม่รู้อะไรบ้างเลย

ว่ามีใครเขาแอบเผย ความในใจ เป็นตัวหนังสือ

ถ้อยคำว่ารักฉันเขียนให้เธอโดยไม่หารือ

บางครั้งฉันยังฝึกปรือ บอกรักเธอหน้าตู้กระจก


* เธอเป็นแฟนฉันแล้ว. . . รู้ตัวบ้างไหม

แล้วเมื่อไร. . .หนอฉันจะได้ เป็นแฟนของเธอ

ก่อนนอนฉันเขียนบันทึกถึงเธอเสมอ

อยากบอก. .รักเธอ อย่างเป็นทางการแต่ไม่กล้าพอ


** เรื่องราวความรัก ลงเอยที่ยิ้มหรือเศร้า

ฉันก็ไม่อาจเดา คิดมากไปก็กลัวเป็นทุกข์

มากขึ้นทุกวัน รักฉันเหมือนเหรียญที่หยอดกระปุก

ฉันมีความสุข . . แม้เป็นแค่คนที่แอบรักเธอ

Solo :


(ซ้ำ * , ** )


มากขึ้นทุกวัน รักฉันเหมือนเหรียญที่หยอดกระปุก

ฉันมีความสุข . . แม้เป็นแค่คนที่แอบรักเธอ



Cover เพลงเธอเป็นแฟนฉันแล้ว


ยังไม่มี Cover เพลงนี้

[ ช่วยกันแบ่งปันคลิปเพลงที่คุณเล่นเอง ]

ฟังเพลง เธอเป็นแฟนฉันแล้ว

ไม่เห็นฝุ่น - กะลา (KALA)
เมื่อ 10 ปีที่แล้ว
ค้นพบคอร์ด 3 เวอร์ชั่น
เธอเป็นแฟนฉันแล้ว - กะลา
เมื่อ 16 ปีที่แล้ว
ค้นพบคอร์ด 16 เวอร์ชั่น
ใจเรายังตรงกันอยู่ไหม - กะลา (Kala)
เมื่อ 8 ปีที่แล้ว
ค้นพบคอร์ด 4 เวอร์ชั่น
ขอเป็นตัวเลือก - กะลา
เมื่อ 15 ปีที่แล้ว
ค้นพบคอร์ด 9 เวอร์ชั่น
บอกสักคำ - กะลา
เมื่อ 16 ปีที่แล้ว
ค้นพบคอร์ด 15 เวอร์ชั่น
ถ้าเธอหลายใจ - กะลา
เมื่อ 14 ปีที่แล้ว
ค้นพบคอร์ด 10 เวอร์ชั่น
รอ - กะลา
เมื่อ 15 ปีที่แล้ว
ค้นพบคอร์ด 12 เวอร์ชั่น
เป็นแฟนกันตั้งแต่เมื่อไหร่ - กะลา
เมื่อ 13 ปีที่แล้ว
ค้นพบคอร์ด 7 เวอร์ชั่น
ทำใจให้ชิน - กะลา (Kala)
เมื่อ 9 ปีที่แล้ว
ค้นพบคอร์ด 1 เวอร์ชั่น
หยุด - กะลา (KALA)
เมื่อ 9 ปีที่แล้ว
ยังไม่มีคอร์ด
กะลา (ใช่ไหม) - กะลา KALA
เมื่อ 13 ปีที่แล้ว
ค้นพบคอร์ด 13 เวอร์ชั่น
ใช่ฉันหรือปล่าว - กะลา
เมื่อ 13 ปีที่แล้ว
ค้นพบคอร์ด 13 เวอร์ชั่น
เจ็บนี้มันลึก - กะลา
เมื่อ 14 ปีที่แล้ว
ค้นพบคอร์ด 16 เวอร์ชั่น
ปิดตา - กะลา
เมื่อ 14 ปีที่แล้ว
ค้นพบคอร์ด 11 เวอร์ชั่น
ใช่ฉันหรือเปล่า - กะลา
เมื่อ 13 ปีที่แล้ว
ค้นพบคอร์ด 32 เวอร์ชั่น
4 นาที - กะลา
เมื่อ 11 ปีที่แล้ว
ค้นพบคอร์ด 18 เวอร์ชั่น
ขอแค่ได้ฝัน - กะลา
เมื่อ 12 ปีที่แล้ว
ค้นพบคอร์ด 4 เวอร์ชั่น
นาฬิกาของคนรักกัน - กะลา (KALA)
เมื่อ 7 ปีที่แล้ว
ค้นพบคอร์ด 2 เวอร์ชั่น
ไม่มีทาง - กะลา
เมื่อ 14 ปีที่แล้ว
ค้นพบคอร์ด 7 เวอร์ชั่น
คนดีที่เย็นชา - กะลา (Kala)
เมื่อ 11 ปีที่แล้ว
ค้นพบคอร์ด 4 เวอร์ชั่น