คอร์ดเพลง เป็นแฟนกันตั้งแต่เมื่อไหร่ - กะลา

Version 2
แกะโดย เต้ กีตาร์ไฟ
เมื่อ 4 พ.ย.2549,09:57น.
ดู 560 ครั้ง


1]---------------------------------------------------------------------------------------------------
2]---------------------------5-----------------------------------------------------------------------
3]--7^7^7^ -7--4-p-6-----6--4p6h4----22--4---2---4--2---------------------------------
4]-----------------------------------------------------------------------4----2-----------------------
5]-----------------------------------------------------------------------------------------------------
6]----------------------------------------------------------------------------------------------------


1]-----------------------------------------------------7-9-10-9-7----------------------5p7-4p5-------
2]-------------------------------------5--7--9--10-----------------10-9-7/5--------------------5p7-
3]--------------------------4--6--7-----------------------------------------------7-6-4--------------4p6
4]---------------4--6--7------------------------------------------------------------------------------------
5]----4--5--7-----------------------------------------------------------------------------------------------
6]-------------------------------------------------------------------------------------------------------------

คอร์ดเพลง เป็นแฟนกันตั้งแต่เมื่อไหร่

ความคิดเห็นเกี่ยวกับคอร์ดนี้

เนื้อเพลง เป็นแฟนกันตั้งแต่เมื่อไหร่ - กะลา

เนื้อร้อง กะลา
อัลบัม inside
คนส่งเพลง aojung_007hotmail.com

ยอมแพ้ความพยายาม ที่เธอคิดจะนอกใจ
ขอชมได้ไหมว่าเธอสุดยอดจริงๆ
ทั้งที่ดูแลอย่างดี รู้ตัวอีกทีก็โดนเธอทิ้ง
เธอไปแอบปิ๊งกันตอนไหน

โอ๊ย...มันงง โอ๊ย..มันโง่ โอ๊ย...มันซวยแท้ๆ
คิดแล้วอยากจะฟ้องแม่ให้มาเล่นเธอ
โอ๊ย...มันจุก โอ๊ย..มันเจ็บ โอ๊ย..มันอยากขวิดเธอ
ไป(มัน)เล่นทีเผลอให้ตกใจ

ไปเป็นแฟนกันตั้งแต่เมื่อไร
เวลาตอนไหนเอาไปจีบกัน
พลอดรักกันให้เตลิด เชิญรักกันให้ตลอด
ใครจะตายช่างหัวมัน
ไปเป็นแฟนกันให้ฉ่ำหัวใจ
แต่ขอได้ไหมไปรักให้ไกล ๆ
โบกมือบ๊ายบายไปเถอะ เจ็บจนหัวใจจะขาด
ต้องมาปาดน้ำตา โถ+++ต้องมาร้องไห้โฮ

ก็แกล้งกันจนใจระทวย ยังไม่รู้ผิดเรื่องใด
เธอทำลงได้ยังไงอยากถามสักคำ
เสียน้ำตาเสียเชิงชาย ไม่รู้จะอายหรือจะขำ
ที่โดนกระทำโดนย่ำยี

โอ๊ย...มันงง โอ๊ย..มันโง่ โอ๊ย...มันซวยแท้ๆ
คิดแล้วอยากจะฟ้องแม่ให้มาเล่นเธอ
โอ๊ย...มันจุก โอ๊ย..มันเจ็บ โอ๊ย..มันอยากขวิดเธอ
ไป(มัน)เล่นทีเผลอให้ตกใจ

ไปเป็นแฟนกันตั้งแต่เมื่อไร
เวลาตอนไหนเอาไปจีบกัน
พลอดรักกันให้เตลิด เชิญรักกันให้ตลอด
ใครจะตายช่างหัวมัน
ไปเป็นแฟนกันให้ฉ่ำหัวใจ
แต่ขอได้ไหมไปรักให้ไกล ๆ
โบกมือบ๊ายบายไปเถอะ เจ็บจนหัวใจจะขาด
ต้องมาปาดน้ำตา โถ+++ต้องมาร้องไห้โฮ

โอ๊ย...มันงง โอ๊ย..มันโง่ โอ๊ย...มันซวยแท้ๆ
คิดแล้วอยากจะฟ้องแม่ให้มาเล่นเธอ
โอ๊ย...มันจุก โอ๊ย..มันเจ็บ โอ๊ย..มันอยากขวิดเธอ
ไป(มัน)เล่นทีเผลอให้ตกใจ

ไปเป็นแฟนกันตั้งแต่เมื่อไร
เวลาตอนไหนเอาไปจีบกัน
พลอดรักกันให้เตลิด เชิญรักกันให้ตลอด
ใครจะตายช่างหัวมัน
ไปเป็นแฟนกันให้ฉ่ำหัวใจ
แต่ขอได้ไหมไปรักให้ไกล ๆ
โบกมือบ๊ายบายไปเถอะ เจ็บจนหัวใจจะขาด
ต้องมาปาดน้ำตา โถ+++ต้องมาร้องไห้โฮ

โถ+++ต้องมาร้องไห้โฮ...

Cover เพลงเป็นแฟนกันตั้งแต่เมื่อไหร่


ยังไม่มี Cover เพลงนี้

[ ช่วยกันแบ่งปันคลิปเพลงที่คุณเล่นเอง ]

ฟังเพลง เป็นแฟนกันตั้งแต่เมื่อไหร่

ไม่เห็นฝุ่น - กะลา (KALA)
เมื่อ 9 ปีที่แล้ว
ค้นพบคอร์ด 3 เวอร์ชั่น
เธอเป็นแฟนฉันแล้ว - กะลา
เมื่อ 16 ปีที่แล้ว
ค้นพบคอร์ด 16 เวอร์ชั่น
ใจเรายังตรงกันอยู่ไหม - กะลา (Kala)
เมื่อ 7 ปีที่แล้ว
ค้นพบคอร์ด 4 เวอร์ชั่น
ขอเป็นตัวเลือก - กะลา
เมื่อ 15 ปีที่แล้ว
ค้นพบคอร์ด 9 เวอร์ชั่น
บอกสักคำ - กะลา
เมื่อ 16 ปีที่แล้ว
ค้นพบคอร์ด 15 เวอร์ชั่น
ถ้าเธอหลายใจ - กะลา
เมื่อ 14 ปีที่แล้ว
ค้นพบคอร์ด 10 เวอร์ชั่น
รอ - กะลา
เมื่อ 15 ปีที่แล้ว
ค้นพบคอร์ด 12 เวอร์ชั่น
เป็นแฟนกันตั้งแต่เมื่อไหร่ - กะลา
เมื่อ 12 ปีที่แล้ว
ค้นพบคอร์ด 7 เวอร์ชั่น
ทำใจให้ชิน - กะลา (Kala)
เมื่อ 9 ปีที่แล้ว
ค้นพบคอร์ด 1 เวอร์ชั่น
หยุด - กะลา (KALA)
เมื่อ 9 ปีที่แล้ว
ยังไม่มีคอร์ด
กะลา (ใช่ไหม) - กะลา KALA
เมื่อ 13 ปีที่แล้ว
ค้นพบคอร์ด 13 เวอร์ชั่น
ใช่ฉันหรือปล่าว - กะลา
เมื่อ 13 ปีที่แล้ว
ค้นพบคอร์ด 13 เวอร์ชั่น
เจ็บนี้มันลึก - กะลา
เมื่อ 14 ปีที่แล้ว
ค้นพบคอร์ด 16 เวอร์ชั่น
ปิดตา - กะลา
เมื่อ 14 ปีที่แล้ว
ค้นพบคอร์ด 11 เวอร์ชั่น
ใช่ฉันหรือเปล่า - กะลา
เมื่อ 13 ปีที่แล้ว
ค้นพบคอร์ด 32 เวอร์ชั่น
4 นาที - กะลา
เมื่อ 11 ปีที่แล้ว
ค้นพบคอร์ด 18 เวอร์ชั่น
นาฬิกาของคนรักกัน - กะลา (KALA)
เมื่อ 7 ปีที่แล้ว
ค้นพบคอร์ด 2 เวอร์ชั่น
ขอแค่ได้ฝัน - กะลา
เมื่อ 12 ปีที่แล้ว
ค้นพบคอร์ด 4 เวอร์ชั่น
ไม่มีทาง - กะลา
เมื่อ 14 ปีที่แล้ว
ค้นพบคอร์ด 7 เวอร์ชั่น
คนดีที่เย็นชา - กะลา (Kala)
เมื่อ 11 ปีที่แล้ว
ค้นพบคอร์ด 4 เวอร์ชั่น

คอร์ดเพลงใหม่

15 | 1/0

กอดเสาเถียง - ปรีชา ปัดภัย

คอร์ดโดย สมัครฟรี ไม่เสียค่าใช้จ่าย
เมื่อ 7 ชั่วโมง
11 | 0/0

จีบสาวฉาวเทือน - เจนนี่ - ลิลลี่ ได้หมดถ้าสดชื่น Feat.วู้ดดี้

คอร์ดโดย สมัครฟรี ไม่เสียค่าใช้จ่าย
เมื่อ 9 ชั่วโมง
45 | 1/0

เจ็บหนักวิทยา - เบลล์ นิภาดา

คอร์ดโดย สมัครฟรี ไม่เสียค่าใช้จ่าย
เมื่อ 2 วันก่อน
54 | 0/0

ถ่าเจ้ากลับมา - ป๊อป นพรัตน์

คอร์ดโดย ศิริศักดิ์ ฝ่ายวงค์
เมื่อ 4 วันก่อน
137 | 0/0

Ver.2 มากกว่าฝูงหมา - กางเกง

คอร์ดโดย สไมล์ เดวิลล์ ปีศาจอารมณ์ดี
เมื่อ 7 วันก่อน
56 | 1/0

Ver.5 ล้า - อะเลิทร์(Alert)

คอร์ดโดย Naternet Bassist
เมื่อ 8 วันก่อน
99 | 0/0

Ver.2 ผีบ้าถามทาง - บิ๊กวัน กันทรลักษ์

คอร์ดโดย สไมล์ เดวิลล์ ปีศาจอารมณ์ดี
เมื่อ 8 วันก่อน