คอร์ดเพลง เป็นแฟนกันตั้งแต่เมื่อไหร่ - กะลา

Version 5
แกะโดย Guitar of AMC
เมื่อ 12 พ.ค.2550,15:49น.
ดู 1746 ครั้ง

1]-------------------------------------------------------------------------------------------------------------------
2]---------------------------------------5--------------------------------------------------------------------------
3]-----4^-4^-4^----2---/6-------6--------6------/6---4-----------------------------------------------------
4]-------------------------------------------------------------------7-7--/9--------7----------------------------
5]---------------------------------------------------------------------------------9------9-/9---7-7------------
6]------------------------------------------------------------------------------------------------------------------


1]-------------------------------------------7-9-7-9-10-12-10-9-7-9-7-----5-7-5--4-5-4-----------------
2]---------------------------------7-9-10-----------------------------------------------------------5-7-5-------
3]-------------------6-7-6-7-9-----------------------------------------------------------------------------4-6-4
4]-----------6-7-9-------------------------------------------------------------------------------------------------
5]---5-7-9---------------------------------------------------------------------------------------------------------
6]--------------------------------------------------------------------------------------------------------------------

ปล. ผมมือใหม่ ผิดพลาดยังไง ก้ออย่าว่ากันนะครับ เด๋วผมร้องไห้ใส่เลย
คอร์ดเพลง เป็นแฟนกันตั้งแต่เมื่อไหร่

ความคิดเห็นเกี่ยวกับคอร์ดนี้

เนื้อเพลง เป็นแฟนกันตั้งแต่เมื่อไหร่ - กะลา

เนื้อร้อง กะลา
อัลบัม inside
คนส่งเพลง aojung_007hotmail.com

ยอมแพ้ความพยายาม ที่เธอคิดจะนอกใจ
ขอชมได้ไหมว่าเธอสุดยอดจริงๆ
ทั้งที่ดูแลอย่างดี รู้ตัวอีกทีก็โดนเธอทิ้ง
เธอไปแอบปิ๊งกันตอนไหน

โอ๊ย...มันงง โอ๊ย..มันโง่ โอ๊ย...มันซวยแท้ๆ
คิดแล้วอยากจะฟ้องแม่ให้มาเล่นเธอ
โอ๊ย...มันจุก โอ๊ย..มันเจ็บ โอ๊ย..มันอยากขวิดเธอ
ไป(มัน)เล่นทีเผลอให้ตกใจ

ไปเป็นแฟนกันตั้งแต่เมื่อไร
เวลาตอนไหนเอาไปจีบกัน
พลอดรักกันให้เตลิด เชิญรักกันให้ตลอด
ใครจะตายช่างหัวมัน
ไปเป็นแฟนกันให้ฉ่ำหัวใจ
แต่ขอได้ไหมไปรักให้ไกล ๆ
โบกมือบ๊ายบายไปเถอะ เจ็บจนหัวใจจะขาด
ต้องมาปาดน้ำตา โถ+++ต้องมาร้องไห้โฮ

ก็แกล้งกันจนใจระทวย ยังไม่รู้ผิดเรื่องใด
เธอทำลงได้ยังไงอยากถามสักคำ
เสียน้ำตาเสียเชิงชาย ไม่รู้จะอายหรือจะขำ
ที่โดนกระทำโดนย่ำยี

โอ๊ย...มันงง โอ๊ย..มันโง่ โอ๊ย...มันซวยแท้ๆ
คิดแล้วอยากจะฟ้องแม่ให้มาเล่นเธอ
โอ๊ย...มันจุก โอ๊ย..มันเจ็บ โอ๊ย..มันอยากขวิดเธอ
ไป(มัน)เล่นทีเผลอให้ตกใจ

ไปเป็นแฟนกันตั้งแต่เมื่อไร
เวลาตอนไหนเอาไปจีบกัน
พลอดรักกันให้เตลิด เชิญรักกันให้ตลอด
ใครจะตายช่างหัวมัน
ไปเป็นแฟนกันให้ฉ่ำหัวใจ
แต่ขอได้ไหมไปรักให้ไกล ๆ
โบกมือบ๊ายบายไปเถอะ เจ็บจนหัวใจจะขาด
ต้องมาปาดน้ำตา โถ+++ต้องมาร้องไห้โฮ

โอ๊ย...มันงง โอ๊ย..มันโง่ โอ๊ย...มันซวยแท้ๆ
คิดแล้วอยากจะฟ้องแม่ให้มาเล่นเธอ
โอ๊ย...มันจุก โอ๊ย..มันเจ็บ โอ๊ย..มันอยากขวิดเธอ
ไป(มัน)เล่นทีเผลอให้ตกใจ

ไปเป็นแฟนกันตั้งแต่เมื่อไร
เวลาตอนไหนเอาไปจีบกัน
พลอดรักกันให้เตลิด เชิญรักกันให้ตลอด
ใครจะตายช่างหัวมัน
ไปเป็นแฟนกันให้ฉ่ำหัวใจ
แต่ขอได้ไหมไปรักให้ไกล ๆ
โบกมือบ๊ายบายไปเถอะ เจ็บจนหัวใจจะขาด
ต้องมาปาดน้ำตา โถ+++ต้องมาร้องไห้โฮ

โถ+++ต้องมาร้องไห้โฮ...

Cover เพลงเป็นแฟนกันตั้งแต่เมื่อไหร่


ยังไม่มี Cover เพลงนี้

[ ช่วยกันแบ่งปันคลิปเพลงที่คุณเล่นเอง ]

ฟังเพลง เป็นแฟนกันตั้งแต่เมื่อไหร่

ไม่เห็นฝุ่น - กะลา (KALA)
เมื่อ 9 ปีที่แล้ว
ค้นพบคอร์ด 3 เวอร์ชั่น
เธอเป็นแฟนฉันแล้ว - กะลา
เมื่อ 16 ปีที่แล้ว
ค้นพบคอร์ด 16 เวอร์ชั่น
ใจเรายังตรงกันอยู่ไหม - กะลา (Kala)
เมื่อ 7 ปีที่แล้ว
ค้นพบคอร์ด 4 เวอร์ชั่น
ขอเป็นตัวเลือก - กะลา
เมื่อ 15 ปีที่แล้ว
ค้นพบคอร์ด 9 เวอร์ชั่น
บอกสักคำ - กะลา
เมื่อ 16 ปีที่แล้ว
ค้นพบคอร์ด 15 เวอร์ชั่น
ถ้าเธอหลายใจ - กะลา
เมื่อ 14 ปีที่แล้ว
ค้นพบคอร์ด 10 เวอร์ชั่น
รอ - กะลา
เมื่อ 15 ปีที่แล้ว
ค้นพบคอร์ด 12 เวอร์ชั่น
เป็นแฟนกันตั้งแต่เมื่อไหร่ - กะลา
เมื่อ 12 ปีที่แล้ว
ค้นพบคอร์ด 7 เวอร์ชั่น
ทำใจให้ชิน - กะลา (Kala)
เมื่อ 9 ปีที่แล้ว
ค้นพบคอร์ด 1 เวอร์ชั่น
หยุด - กะลา (KALA)
เมื่อ 9 ปีที่แล้ว
ยังไม่มีคอร์ด
กะลา (ใช่ไหม) - กะลา KALA
เมื่อ 13 ปีที่แล้ว
ค้นพบคอร์ด 13 เวอร์ชั่น
ใช่ฉันหรือปล่าว - กะลา
เมื่อ 13 ปีที่แล้ว
ค้นพบคอร์ด 13 เวอร์ชั่น
เจ็บนี้มันลึก - กะลา
เมื่อ 14 ปีที่แล้ว
ค้นพบคอร์ด 16 เวอร์ชั่น
ปิดตา - กะลา
เมื่อ 14 ปีที่แล้ว
ค้นพบคอร์ด 11 เวอร์ชั่น
ใช่ฉันหรือเปล่า - กะลา
เมื่อ 13 ปีที่แล้ว
ค้นพบคอร์ด 32 เวอร์ชั่น
4 นาที - กะลา
เมื่อ 11 ปีที่แล้ว
ค้นพบคอร์ด 18 เวอร์ชั่น
นาฬิกาของคนรักกัน - กะลา (KALA)
เมื่อ 7 ปีที่แล้ว
ค้นพบคอร์ด 2 เวอร์ชั่น
ขอแค่ได้ฝัน - กะลา
เมื่อ 12 ปีที่แล้ว
ค้นพบคอร์ด 4 เวอร์ชั่น
ไม่มีทาง - กะลา
เมื่อ 14 ปีที่แล้ว
ค้นพบคอร์ด 7 เวอร์ชั่น
คนดีที่เย็นชา - กะลา (Kala)
เมื่อ 11 ปีที่แล้ว
ค้นพบคอร์ด 4 เวอร์ชั่น

คอร์ดเพลงใหม่