คอร์ดเพลง เพื่อเธอ - หินเหล็กไฟ

Version 2
แกะโดย tik 2/4
เมื่อ 20 ต.ค.2549,00:16น.
ดู 771 ครั้ง
INTRO

Emaj7 A9 F#m7 G#m7
-------0----------------0----------0----------------0-------------------2-----------------------------------4-------------
---4--------------------------4----------------------------------------------5----------/7-----------------------7---------
---4------4----------4-------4--------4--------4--------2----2---------------2---------------4--------4-----------4---
----------------2-----------------------------2-----------------------4----------------4/6-----------6--------------------
-------------------------------0----------------------------------------------------------------------------------------------
---0--------------------------------------------------------2---------------------------2/4--------------------------------

C#m7 A9 A
-4-------4----------------4-------------------------0------------4------------4--------------------------------------------2---------
-5-----------5----4h5------5h4-----------4---5-------5h7----------5h7-----2----------4-------------5-----------------5------
-4----4--------4---------------------4------4---------4-------------------------------2----------2------2---------2------------2--
-6----------------------------------------6---------------------------9---------------------2----------2---------2------2------------
-4--------------------------------------------0-------------------------------------0---------------------------------------------------
------------------------------------------------------------------------------------------------------------------------------------------

B7
-------------0--------------------------------0---------0-------------------
--4-------------4----------------9---7-----------4--------------0---------
------4---------------4----------------------------------------6-------6---
----------4----------------4/9----------------------------------------------
--2--------------------------------------------------------------------------
คอร์ดเพลง เพื่อเธอ

ความคิดเห็นเกี่ยวกับคอร์ดนี้

Cover เพลงเพื่อเธอ


ยังไม่มี Cover เพลงนี้

[ ช่วยกันแบ่งปันคลิปเพลงที่คุณเล่นเอง ]

ฟังเพลง เพื่อเธอ