คอร์ดเพลง เพ้อ - พาราด็อกซ์ (PARADOX)

Version 2
แกะโดย แจนค่ะ
เมื่อ 12 พ.ค.2548,23:53น.
ดู 4333 ครั้ง
1]----2----------2-------------2---------3-------------2----------0-------------------------------------
2]---------3------------3-----------0---------3------------0------------------------------------------
3]--------------2------------2----------- ---------0------------0-------------------------------------
4]---------------------------------------------------------------------------------------------
5]--------------------------------------------------------------------------------------------
6]------------------------------------------------------------------------------------------
(2รอบ)
1]----3----------3---------- 2-------3-----------2-----------0-----3--------3------3------------------
2]--------2----------2----------0-------3-----------0------------------0-------0-----0--------------
3]-------------3---------3--------------- ---0-----------0-----------------0-------0-------------------
4]---------------------------------------------------------------------------------------------

1]--1-----1----1/0------------- ----------------------------------------------------------------
2]----0-----0--------------------------------------------------------------------------------
3]-------0----0------------------------- ---------------------------------------------------------
4]---------------------------------------------------------------------------------------------

เริ่มใหม่อีกรอบ (และไม่ต้องเล่นแทปที่3 )
ต่อที่ ....เปลี่ยนแปลงความรัก........ ในคอร์ดคือ Em แทปเป็นยังงี้

1]--0--- 0-- 0------0--------0-----------0--------2-------2--------2--------3---------2------------
2]--- 0--- 0-- 0-------2---------2-----------0-------3-------3---------0-------3--------------------
3]--- -0--- 0--------------2----------2------------------2--------2------------------0---------------
4]---------------------------------------------------------------------------------------------


Bm F#m Em A ตรงนี้จะเป็นดีดไปด้วยเกาไปด้วย ขั้เกียจเขียนให้แล้วง่ะ
ลองเล่นดูนะไม่รู้ถูกมะ แล้วก็มีอีกแบบที่น่าจะเหมือนนะ
D Dsus4 D Dsus2 (2times)

1]------------2------------ 3-----------2-----------0--------------------------------------------
2]---------3------3------0-----3----------0------------------------------------------------------
3]------2------------2-------------0------ ----0-----------------------------------------------------
4]--2-------------------------------------------------------------------------------------------

ก็คือเกาตามคอร์ดแล้วก็มีลูกเล่นนิดหน่อยลองดูไม่รู้จะถูกเป่า
ที่เหลือก็ขี้เกียจพิมพ์แว้ว โทดที
คอร์ดเพลง เพ้อ

ความคิดเห็นเกี่ยวกับคอร์ดนี้

เนื้อเพลง เพ้อ - พาราด็อกซ์ (PARADOX)

เพ้อ
คำร้อง/ทำนอง อิทธิพงศ์ กฤดากร ณ อยุธยา
PROX : ร้อง
เล่นจังหวะ SOUL

Intro:


เพ้อ หากฉันมีแต่..เธอ

และสองเราคง..เพ้อ

หากฟ้าลืมสว่าง

ท่ามกลางโขดหินโพ้นทะเลดำ


เธอ..ผู้แสนงามเพียงเธอ

แผ่วพริ้วกายกลิ่นเธอ

อ่อนหวานละมุนจนเพ้อ

เปลี่ยนแปลงความรักทั้งสองรวมกัน

เปล่าเปลือยลงน้ำเย็นฉ่ำ


คืนนี้มีแต่หมู่ดาว กลาดเกลื่อนกระพริบพร่างพราว

มีแต่เราสอง กอดเธอไว้ลืมตามอง สิ่งที่สวยงาม

Instru:

(ซ้ำทั้งหมด)


เราล่องลอยดั่งความฝัน จนสุดขอบฟ้าราตรี

เกยหาดทรายขาว ห่างไกลโพ้นกลางทะเล ตราบนานแสนนาน

Instru:

Cover เพลงเพ้อ


ยังไม่มี Cover เพลงนี้

[ ช่วยกันแบ่งปันคลิปเพลงที่คุณเล่นเอง ]

ฟังเพลง เพ้อ

ฤดูร้อน - พาราด็อกซ์ (Paradox)
เมื่อ 15 ปีที่แล้ว
ค้นพบคอร์ด 41 เวอร์ชั่น
เธอที่รัก(วัยอลวน4 ตั้ม โอ๋รีเทอนร์) - พาราด็อกซ์ (Paradox)
เมื่อ 13 ปีที่แล้ว
ค้นพบคอร์ด 20 เวอร์ชั่น
คนบนฟ้า - พาราด็อกซ์ (Paradox)
เมื่อ 7 ปีที่แล้ว
ค้นพบคอร์ด 4 เวอร์ชั่น
มีแต่เธอ - พาราด็อกซ์ (PARADOX)
เมื่อ 15 ปีที่แล้ว
ค้นพบคอร์ด 1 เวอร์ชั่น
Sexy (เซ็กซี่) - พาราด็อกซ์ (Paradox)
เมื่อ 15 ปีที่แล้ว
ค้นพบคอร์ด 10 เวอร์ชั่น
กอดฉันไว้ (Ost.สามชุก) - พาราด็อกซ์ (Paradox)
เมื่อ 9 ปีที่แล้ว
ค้นพบคอร์ด 1 เวอร์ชั่น
ดาว - พาราด็อกซ์ (PARADOX)
เมื่อ 15 ปีที่แล้ว
ค้นพบคอร์ด 17 เวอร์ชั่น
ใครสักคน - พาราด็อกซ์ (Paradox)
เมื่อ 12 ปีที่แล้ว
ค้นพบคอร์ด 11 เวอร์ชั่น
กรงทอง - พาราด็อกซ์ (Paradox)
เมื่อ 15 ปีที่แล้ว
ค้นพบคอร์ด 9 เวอร์ชั่น
จิ๊บ ร.ด. - พาราด็อกซ์ (Paradox)
เมื่อ 12 ปีที่แล้ว
ค้นพบคอร์ด 3 เวอร์ชั่น
ผงาดง้ำค้ำโลก - พาราด็อกซ์ (Paradox)
เมื่อ 12 ปีที่แล้ว
ค้นพบคอร์ด 13 เวอร์ชั่น
ทาส - พาราด็อกซ์ (Paradox)
เมื่อ 15 ปีที่แล้ว
ค้นพบคอร์ด 16 เวอร์ชั่น
นักมายากล - พาราด็อกซ์ (PARADOX)
เมื่อ 15 ปีที่แล้ว
ค้นพบคอร์ด 14 เวอร์ชั่น
เพ้อ - พาราด็อกซ์ (PARADOX)
เมื่อ 15 ปีที่แล้ว
ค้นพบคอร์ด 3 เวอร์ชั่น
LOVE - พาราด็อกซ์ (Paradox)
เมื่อ 15 ปีที่แล้ว
ค้นพบคอร์ด 9 เวอร์ชั่น
เป็นวัยรุ่นมันเหนื่อย - พาราด็อกซ์ (Paradox)
เมื่อ 13 ปีที่แล้ว
ค้นพบคอร์ด 6 เวอร์ชั่น
อยู่ในใจ - พาราด็อกซ์ (Paradox)
เมื่อ 15 ปีที่แล้ว
ค้นพบคอร์ด 3 เวอร์ชั่น
ขอ - พาราด็อกซ์ (Paradox)
เมื่อ 15 ปีที่แล้ว
ค้นพบคอร์ด 4 เวอร์ชั่น
3มิติ - พาราด็อกซ์ (Paradox)
เมื่อ 15 ปีที่แล้ว
ค้นพบคอร์ด 14 เวอร์ชั่น
ไก่ - พาราด็อกซ์ (PARADOX)
เมื่อ 15 ปีที่แล้ว
ค้นพบคอร์ด 6 เวอร์ชั่น