คอร์ดเพลง เมารัก - พี ทู วอร์ ซิพ(P2Warship)

Version 8
แกะโดย เล่งหูชง
เมื่อ 27 มี.ค.2551,14:22น.
ดู 312 ครั้ง


Intro:

G
2|--------7-----------7-----------7------7------------7------------7--------|
3|------------7----------7--------------------7------------7------------------|
4|-----------------9---------9---------------------9------------9-------------|


C
2|--------5-----------5-----------5---------8------------------------------||
3|------------5----------5-------------------8v*-----------------------------||
4|-----------------5---------5-----------------------------------------------||


* เน้นเสียง สาย 3 นะครับ ใช้วิธี ดีดลง จากสาย 3 ไป หาสาย 2 ก็ได้
** ตัว v คือ สั่นสายนะครับ

<u>หมายเหตุ</u> จ้า

**ที่คุณเนติ บอกมาข้างบนก็ถูกนะครับ แต่ถ้าเล่นกับกีต้าร์ไฟ
เสียงจะกังวานไปหน่อย ผมเลยใช้เสียงข้างในเล่น**

Riff: ท่อนแรก

3|------12v-------------------------------------------------------------------------------------------------||
4|---------------9--9h10s12s14------------------------------------------------------------------------||
5|-------------------------------------------10--10h12s14s15----15v--15p14h15-----17-18--||


v = สั่นสาย ้
h= hamming on
p= pull off
s= slide(สไลด์สายกีตาร์)

**ใครไม่เก่งศัพท์ดนตรี หรือ ถ้าผมเขียนชื่อผิด ก็ขอโทษมา ณ ที่นี้ด้วยนะครับ




ปล. เด่ว ท่อน ที่ใช้ Tremolo(ดีดรัวแบบซึง อ่ะครับ) เด่ว ผมจะพยายามแกะแล้วกัน

มันปนกับเสียงเบส มั่วไปหมด -*-
คอร์ดเพลง เมารัก

ความคิดเห็นเกี่ยวกับคอร์ดนี้

เวอร์ชั่นทั้งหมดของคอร์ดเพลงนี้

เนื้อเพลง เมารัก - พี ทู วอร์ ซิพ(P2Warship)




แล้วก็เป็นอย่างนี้ รักที่คิดว่าต้องดี สุดท้ายมันก็ช้ำใจ

ก็พอจะรู้ว่าควรจะต้องห้ามใจ แต่จะทำเช่นไร

กลับได้เจอแต่ภาพวันเก่า


* มีใครบ้างคนเคยนิยามเอาไว้

ว่าความรักเป็นเหตุทำให้คนเมา

เมื่อเรานั้นรักใคร ซะดี มันก็ดูคล้ายจะบางเบา


** ก็อาจเป็นเพราะฉัน นั้นคงยังเมารัก

จึงลืมว่าฉันนั้นควรหักห้ามใจ

ก็เมื่อมันคิดถึงเธอคงต้องปล่อยไป

ก็จะให้ทำอย่างไร ก็หัวใจฉันยังไม่สร่าง


แล้วเมาแล้วก็หาย

แต่ว่าการที่คิดถึงใคร นั้นมันทรมาน

อยู่อยากจะพบ อยากที่จะพูดคุย

อยากที่จะรับฟัง อยากสัมผัสเธอเหมือนวันเก่า


ซ้ำ (*)(**)

ซ้า (**)(**)


โหลดเพลงนี้ ที่นี่


http://www.thupload.com/download/a0633f07b6d995c936a86a4f751bb92c.html





Cover เพลงเมารัก


ยังไม่มี Cover เพลงนี้

[ ช่วยกันแบ่งปันคลิปเพลงที่คุณเล่นเอง ]

ฟังเพลง เมารัก

เมารัก - พี ทู วอร์ ซิพ(P2Warship)
เมื่อ 11 ปีที่แล้ว
ค้นพบคอร์ด 8 เวอร์ชั่น
เมารัก - พี ทู วอร์ ซิพ(P2Warship)
เมื่อ 11 ปีที่แล้ว
ค้นพบคอร์ด 8 เวอร์ชั่น
บ้านนี้มีรัก - พีทูวอร์ชิป (P2Warship)
เมื่อ 10 ปีที่แล้ว
ค้นพบคอร์ด 2 เวอร์ชั่น
เธอยังมีฉันอยู่ไหม - P2WarShip
เมื่อ 11 ปีที่แล้ว
ยังไม่มีคอร์ด
ระยะห่าง - พีทูวอร์ชิป (P2Warship)
เมื่อ 13 ปีที่แล้ว
ค้นพบคอร์ด 1 เวอร์ชั่น
คนเข้าใจยาก - P2Warship
เมื่อ 11 ปีที่แล้ว
ยังไม่มีคอร์ด
เชือกบางบาง - พีทูวอร์ชิป (P2Warship)
เมื่อ 13 ปีที่แล้ว
ค้นพบคอร์ด 2 เวอร์ชั่น
มหาลัย - ปั้น P2Warship
เมื่อ 8 ปีที่แล้ว
ยังไม่มีคอร์ด
นักประดิษฐ์ - พีทูวอร์ชิพ (P2Warship)
เมื่อ 3 ปีที่แล้ว
ค้นพบคอร์ด 1 เวอร์ชั่น
ผ่านมันให้ได้ - พีทูวอร์ชิพ (P2Warship)
เมื่อ 5 ปีที่แล้ว
ค้นพบคอร์ด 1 เวอร์ชั่น
ป้วนเปี้ยน - พีทูวอร์ชิพ (P2Warship)
เมื่อ 5 ปีที่แล้ว
ค้นพบคอร์ด 1 เวอร์ชั่น
เมารัก - พีทูวอร์ชิพ (P2Warship)
เมื่อ 5 ปีที่แล้ว
ค้นพบคอร์ด 1 เวอร์ชั่น
ที่สุด - พีทูวอร์ชิพ (P2Warship)
เมื่อ 5 ปีที่แล้ว
ค้นพบคอร์ด 1 เวอร์ชั่น