คอร์ดเพลง เรือรักกระดาษ - มาลีฮวนน่า

Version 2
แกะโดย (((@o@)
เมื่อ 24 มี.ค.2550,13:19น.
ดู 666 ครั้ง

G Gmaj7 A D
1)-----3-----3-----3-----3-----2-----2----2----2------5----5----5----5----5-----6------------
2)-----3-----3-----3-----3-----3-----3----3----3------5----5----5----5----5-----5------------
3)--------4-----4-----4-----4-----4-----4-----4----4-----5----5----5----5-----6---------------

Em
1)------------------------------------------------------------------------------------------------------
2)-----------------7--8--7-------------------------------------------------------------------------------
3)------7------7------------7-----7------------------------------------------------------------------------
4)----------9-------------------9------------------------------------------------------------------------
5)-----------------------------------------------------------------------------------------------------

คอร์ดเพลง เรือรักกระดาษ

ความคิดเห็นเกี่ยวกับคอร์ดนี้

เนื้อเพลง เรือรักกระดาษ - มาลีฮวนน่า

เรือรักกระดาษ
เนื้อเพลงโดย : สิทธิชัย วัยบริสุทธิ์

intro:


เรือรักกระดาษ คลื่นสาดในธารมายา

โลกีย์บังตา บังใจอ่อนไหวไหวเอน

นาวาสุขสม ไม่นานก็ล่มสลาย

อยากจูบรูปกาย ไขว่คว้า ได้เพียงรูปเงา


*
ห่าง กันเเปรผันบอกรักคนอื่น

ข้ามคืน...หยิบยื่นความสาวให้ชม

ดอกไม้กลิ่นเเรงล่อเเมงตัวผู้มาดม

เเลกร่างเสพสม ยอมตรมเพื่อหารักจริง


**
ยามรักหนีจาก รักฝากปวดร้าวนานา

เก็บซ่อนน้ำตา เย็นชากับความรักลวง

รักเเสนสุดหวง รักลวงรู้ตัวเมื่อสาย

เสน่ห์เรือนกาย เสพได้เเค่เพียง กามา

solo:

*,**

solo:




Cover เพลงเรือรักกระดาษ


ยังไม่มี Cover เพลงนี้

[ ช่วยกันแบ่งปันคลิปเพลงที่คุณเล่นเอง ]

ฟังเพลง เรือรักกระดาษ

แสงจันทร์ - มาลีฮวนน่า
เมื่อ 14 ปีที่แล้ว
ค้นพบคอร์ด 11 เวอร์ชั่น
ลมเพลมพัด - มาลีฮวนน่า
เมื่อ 15 ปีที่แล้ว
ค้นพบคอร์ด 8 เวอร์ชั่น
หัวใจพรือโฉ - มาลีฮวนน่า
เมื่อ 14 ปีที่แล้ว
ค้นพบคอร์ด 9 เวอร์ชั่น
เด็กน้อย - มาลีฮวนน่า
เมื่อ 12 ปีที่แล้ว
ค้นพบคอร์ด 5 เวอร์ชั่น
กระท่อมกัญชา - มาลีฮวนน่า
เมื่อ 12 ปีที่แล้ว
ค้นพบคอร์ด 9 เวอร์ชั่น
อาวรณ์ - มาลีฮวนน่า
เมื่อ 15 ปีที่แล้ว
ค้นพบคอร์ด 5 เวอร์ชั่น
ถนนแปลกแยก - มาลีฮวนน่า
เมื่อ 14 ปีที่แล้ว
ค้นพบคอร์ด 7 เวอร์ชั่น
หมาหยอกไก่ - มาลีฮวนน่า
เมื่อ 12 ปีที่แล้ว
ค้นพบคอร์ด 4 เวอร์ชั่น
หมาล่าเนื้อ - มาลีฮวนน่า
เมื่อ 11 ปีที่แล้ว
ค้นพบคอร์ด 4 เวอร์ชั่น
พร้าว - มาลีฮวนน่า
เมื่อ 14 ปีที่แล้ว
ค้นพบคอร์ด 17 เวอร์ชั่น
คนเลว - มาลีฮวนน่า
เมื่อ 10 ปีที่แล้ว
ค้นพบคอร์ด 2 เวอร์ชั่น
เรือรักกระดาษ - มาลีฮวนน่า
เมื่อ 13 ปีที่แล้ว
ค้นพบคอร์ด 5 เวอร์ชั่น
คนเช็ดเงา - มาลีฮวนน่า
เมื่อ 11 ปีที่แล้ว
ค้นพบคอร์ด 2 เวอร์ชั่น
จันทร์ฉาย - มาลีฮวนน่า
เมื่อ 15 ปีที่แล้ว
ค้นพบคอร์ด 14 เวอร์ชั่น
โมรา - มาลีฮวนน่า
เมื่อ 12 ปีที่แล้ว
ค้นพบคอร์ด 1 เวอร์ชั่น
หัวใจละเฮีย - มาลีฮวนน่า
เมื่อ 11 ปีที่แล้ว
ค้นพบคอร์ด 3 เวอร์ชั่น
สหายสุรา - มาลีฮวนน่า
เมื่อ 12 ปีที่แล้ว
ค้นพบคอร์ด 2 เวอร์ชั่น
ไอ้ใบ้ - มาลีฮวนน่า
เมื่อ 12 ปีที่แล้ว
ค้นพบคอร์ด 3 เวอร์ชั่น
ว่าวจุฬา - มาลีฮวนน่า
เมื่อ 11 ปีที่แล้ว
ค้นพบคอร์ด 1 เวอร์ชั่น
ขอทานน้อย - มาลีฮวนน่า
เมื่อ 10 ปีที่แล้ว
ค้นพบคอร์ด 1 เวอร์ชั่น